rock
 
|tablatures   |lyrics   |discussion forums   |more tabs @ XGuitar.com

Beatles tabs

Dont Bother Me bass tab

Beatles_Don't Bother Me

TablEdited by Jan Bjorklund
Tuning : E A D G 	Time Signature: 4/4


|----|----|------------|----|--4-----2-4-|2-2---2-|--7-7-----|
|0-4-|2-0-|2-0---2-0---|2-2-|5---4-4-----|----2---|5-----5-4-|
|----|----|----2-----2-|----|7-----------|--------|----------|
|----|----|------------|----|------------|--------|----------|

|--------|--4-----2-4-|2-------|--------|--|----|----|----|
|2-----2-|5---4-4-----|--2-2-0-|--0-0-0-|--|2-2-|----|2-2-|
|--2-2---|7-----------|--------|--------|--|----|0-0-|----|
|--------|------------|--------|3-------|3-|----|----|----|

|------|--4-----2-4-|2-2---2-|--7-7-----|--------|--4-----2-4-|
|2-2-2-|5---4-4-----|----2---|5-----5-4-|2-----2-|5---4-4-----|
|------|7-----------|--------|----------|--2-2---|7-----------|
|------|------------|--------|----------|--------|------------|

|2-------|--------|0-|----|----|----|----------------|--------|
|--2-2-0-|--0-0-4-|--|2-2-|----|2-2-|2-2-2-2-2-2-2-2-|0-0-4-4-|
|--------|--------|--|----|0-0-|----|----------------|--------|
|--------|3-------|--|----|----|----|----------------|--------|

|--------|--------------|----|----|------|--------|--------|
|2-2-0-0-|2-0---2-0---2-|2-2-|0-4-|2-0-0-|2-2-----|2-2---2-|
|--------|----2-----2---|----|----|------|----2-2-|----2---|
|--------|--------------|----|----|------|--------|--------|

|4---2-|4-----4-|2-----0-|2-----0---|--0-0---|--0-0---|
|--4---|--4-4---|--2-2---|--2-2---4-|--------|--------|
|------|--------|--------|--------4-|3-----3-|3-----3-|
|------|--------|--------|----------|--------|--------|

|--------|--|4-----2-4-|2-----2-|0-----0---|--------|4-----2-4-|
|2-----0-|2-|--4-4-----|--2-2---|--0-0---4-|2-----2-|--4-4-----|
|--2-2---|--|----------|--------|----------|--2-2---|----------|
|--------|--|----------|--------|----------|--------|----------|

|2-------|0-------|0-|----|----|----|--|4-4-----2-4-|2-2-----2-|
|--2-2-0-|--0-0-4-|--|2-2-|----|2-2-|2-|----4-4-----|----2-2---|
|--------|--------|--|----|0-0-|----|--|------------|----------|
|--------|--------|--|----|----|----|--|------------|----------|

|0---0---|----------|--4---2-4-|2---2---|0-----|0-|----|
|--0---4-|2-----0-2-|5---4-----|--2---0-|--0-4-|--|2-2-|
|--------|--2-2-----|7---------|--------|------|--|----|
|--------|----------|----------|--------|------|--|----|

|----|----|----------------|----------|--------|----------|
|----|2-2-|2-2-2-2-2-2-2-2-|0-0-4-4-4-|2-2-0-0-|2-2-2---0-|
|0-0-|----|----------------|----------|--------|------2---|
|----|----|----------------|----------|--------|----------|

|------------|--------|------|------------|------------|
|2-0---2-0---|0-0-4-4-|2-0-0-|2-2---2-2---|2-2---2---2-|
|----2-----2-|--------|------|----2-----2-|----2---2---|
|------------|--------|------|------------|------------|

|4-4---2-|4-----4-|2-----0-|2-----0---|--0-0---|--0-0---|
|----4---|--4-4---|--2-2---|--2-2---4-|--------|--------|
|--------|--------|--------|--------4-|3-----3-|3-----3-|
|--------|--------|--------|----------|--------|--------|

|--------|--|4-4-4---|2-------|0-----0---|--------|4-----2-4-|
|2-----0-|2-|------4-|--2-2-0-|--0-0---4-|2-----2-|--4-4-----|
|--2-2---|--|--------|--------|----------|--2-2---|----------|
|--------|--|--------|--------|----------|--------|----------|

|2-----|0---------|0-|----|----|------|------|----------|
|--0-0-|--0-0-2-4-|--|2-2-|----|2-2-2-|------|2-2-2-2---|
|------|----------|--|----|0-0-|------|0-0-0-|--------0-|
|------|----------|--|----|----|------|------|----------|

|--|----------|--2-0-----|--------0-2-|0-2-0-----|----------|
|--|2-2-2-2---|------2-0-|2-2-2-2-----|------4-2-|2-2-2-2---|
|0-|--------0-|0---------|------------|----------|--------0-|
|--|----------|----------|------------|----------|----------|

|--|----------|--2-0-----|--------0-2-|0-2-0-----|----------|
|--|2-2-2-2---|------2-0-|2-2-2-2-----|------4-2-|2-2-2-2---|
|0-|--------0-|0---------|------------|----------|--------0-|
|--|----------|----------|------------|----------|----------|

|--|----------|--2-0-----|--------0-2-|0-2-0-----||
|--|2-2-2-2---|------2-0-|2-2-2-2-----|------4-2-||
|0-|--------0-|0---------|------------|----------||
|--|----------|----------|------------|----------||



Created with TablEdit http://www.tabledit.com/
  development and support by
dmitry ivanov