rock
 
|tablatures   |lyrics   |discussion forums   |more tabs @ XGuitar.com

Beatles tabs

Doctor Robert bass tab

BEATLES - DR ROBERT

TABBED BY JIM COTTRELL (BOBTUCKER9@HOTMAIL.COM) WWW.CLIK.TO/AMBRE

Intro
|2-----------2-----------0-------|2-----------2-----------1-------|
|----------------2---------------|----------------2---------------|
|--------------------------------|--------------------------------|
|--------------------------------|--------------------------------|

|2-----------2-------------------|2-----------2-----------0-------|
|----------------2-----------2---|----------------2---------------|
|--------------------------------|--------------------------------|
|--------------------------------|--------------------------------|

Verse 1
|2-----------2-------------------|2-----------2-------------------|
|----------------2-----------2---|----------------2-------2-------|
|--------------------------------|--------------------------------|
|--------------------------------|--------------------------------|

|2-----------2-------------------|2-----------2-------------------|
|----------------2-----------2---|----------------2-------2-------|
|--------------------------------|--------------------------------|
|--------------------------------|--------------------------------|

|2-----------2-------------------|2-----------2-------------------|
|----------------2-----------2---|----------------2-------2-------|
|--------------------------------|--------------------------------|
|--------------------------------|--------------------------------|

|2-----------2-------------------|2-----------2-----------0-------|
|----------------2-----------2---|----------------2---------------|
|--------------------------------|--------------------------------|
|--------------------------------|--------------------------------|

chorus 1
|--------------------------------|--------------------------------|
|4-----------4-------------------|4-----------4-------------------|
|----------------4-----------4---|----------------0---2---4-------|
|--------------------------------|--------------------------------|

|--------------------------------|--------------------------------|
|4-----------4-------------------|4-----------4-------------------|
|----------------4-----------4---|----------------0---2---4-------|
|--------------------------------|--------------------------------|

|--------------------------------|--------------------------------|
|4-----------4-------------------|4-----------4-----------4-------|
|----------------4-----------4---|----------------4---------------|
|--------------------------------|--------------------------------|

|--------------------------------|--------------------------------|
|2-----------0-------------------|4-----------4-----------4-------|
|----------------0---------------|----------------4---------------|
|------------------------0-------|--------------------------------|

|--------------------------------|------------------------4-------|
|--------------------------------|----------------4---------------|
|2-----------2-----------0-------|2-----------2-------------------|
|----------------2---------------|--------------------------------|

repeat verse 1

Chorus 2
|--------------------------------|--------------------------------|
|4-----------4-------------------|4-----------4-------------------|
|----------------4-----------4---|----------------0---2---4-------|
|--------------------------------|--------------------------------|

|--------------------------------|--------------------------------|
|4-----------4-------------------|4-----------4-------------------|
|----------------4-----------4---|----------------0---2---4-------|
|--------------------------------|--------------------------------|

|--------------------------------|--------------------------------|
|4-----------4-------------------|4-----------4-----------4-------|
|----------------4-----------4---|----------------4---------------|
|--------------------------------|--------------------------------|

|--------------------------------|--------------------------------|
|2-----------0-------------------|4-----------4-----------4-------|
|----------------0---------------|----------------4---------------|
|------------------------0-------|--------------------------------|

|--------------------------------|--------------------------------|
|----------------4---------------|--------------------------------|
|2-----------2-------------------|2-----------2---2---------------|
|--------------------------------|--------------------------------|

Bridge
|4---------------4-------4-------|4---------------4---------------|
|--------------------------------|--------------------------------|
|--------------------------------|--------------------------------|
|--------------------------------|--------------------------------|

|4-------4-------4-------4-------|4---------------4-------------4-|
|--------------------------------|--------------------------------|
|--------------------------------|--------------------------------|
|--------------------------------|--------------------------------|

|4-------4-------4-------4-------|4---------------4---------------|
|--------------------------------|--------------------------------|
|--------------------------------|--------------------------------|
|--------------------------------|--------------------------------|

|4-------4-------4-------4-------|4---------------4---------------|
|--------------------------------|--------------------------------|
|--------------------------------|--------------------------------|
|--------------------------------|--------------------------------|


Repeat Verse 1

Repeat Chorus 2

Repeat Bridge


outro
|2-------2---------------0-------|2-----------2---2---------------|
|----------------2---------------|--------------------0---2-------|
|--------------------------------|--------------------------------|
|--------------------------------|--------------------------------|

|2-----------2-------------------|2-----------2---2---------------|
|----------------2-------0-------|--------------------0---2-------|
|--------------------------------|--------------------------------|
|--------------------------------|--------------------------------|

|2-----------2-------------------|2-----------2---------------0---|
|----------------2-----------2---|--------------------0---2-------|
|--------------------------------|----------------0---------------|
|--------------------------------|--------------------------------|

|2-----------2-------------------|2-----------2-------------------|
|----------------2-----------2---|----------------2-----------2---|
|--------------------------------|--------------------------------|
|--------------------------------|--------------------------------|

|2-----------2-----------1-------|2-----------2-------------------|
|----------------2---------------|----------------2---------------|
|--------------------------------|--------------------------------|
|--------------------------------|--------------------------------|

|--------------------------------|--------------------------------|
|4-------4-------4---------------|4---------------4---------------|
|------------------------4-------|--------------------------------|
|--------------------------------|--------------------------------|

|4-----------------------4-------|--------------------------------|
|----------------4---------------|--------------------------------|
|--------------------------------|--------------------------------|
|--------------------------------|--------------------------------|

WWW.CLIK.TO/AMBRE
  development and support by
dmitry ivanov