rock
 
|tablatures   |lyrics   |discussion forums   |more tabs @ XGuitar.com

Beatles tabs

Do You Want To Know A Secret bass tab

This is one of my favorites

Tuning : E A D G 	Time Signature: 4/4


|4-||----1-0-|----4-2-1---|----1-0-|----4-2-1---|----1-0-|
|--||2-2-----|4-4-------4-|2-2-----|4-4-------4-|2-2-----|
|--||--------|------------|--------|------------|--------|
|--||--------|------------|--------|------------|--------|

|----5-|--1-2-1-0-|----4-2-1---|----1-0-|----4-2-1---|2-2-2-|
|4-4---|2---------|4-4-------4-|2-2-----|4-4-------4-|------|
|------|----------|------------|--------|------------|------|
|------|----------|------------|--------|------------|------|

|4-4-4-|6---------------|--6-5-4-------|----1-0-|----4-2-1---|
|------|----------------|4-------7-6-4-|2-2-----|4-4-------4-|
|------|--4-4-4-4-4-4-4-|--------------|--------|------------|
|------|----------------|--------------|--------|------------|

|----1-0-|----4-2-1---|----1-0-|----5-|--1-2-1-0-|----4-2-1---|
|2-2-----|4-4-------4-|2-2-----|4-4---|2---------|4-4-------4-|
|--------|------------|--------|------|----------|------------|
|--------|------------|--------|------|----------|------------|

|----1-0-|----4-2-1---|2-2-2-|4-4-4-|6---------------|--6-5-4-------|
|2-2-----|4-4-------4-|------|------|----------------|4-------7-6-4-|
|--------|------------|------|------|--4-4-4-4-4-4-4-|--------------|
|--------|------------|------|------|----------------|--------------|

|2-2-----|6-7-4-|2-2-----|6-7-4-4-|--------|4-4-2-2-1-1-----|
|----4-4-|------|----4-4-|--------|4-4-4-4-|------------4---|
|--------|------|--------|--------|--------|--------------2-|
|--------|------|--------|--------|--------|----------------|

|----1-0-|----4-2-1---|----1-0-|----4-2-1---|----1-0-|----5-|
|2-2-----|4-4-------4-|2-2-----|4-4-------4-|2-2-----|4-4---|
|--------|------------|--------|------------|--------|------|
|--------|------------|--------|------------|--------|------|

|--1-2-1-0-|----4-2-1---|----1-0-|----4-2-1---|2-2-2-|4-4-4-|
|2---------|4-4-------4-|2-2-----|4-4-------4-|------|------|
|----------|------------|--------|------------|------|------|
|----------|------------|--------|------------|------|------|

|6---------------|--6-5-4-------||4-2---4-||4-2---4-||4-2---4-|
|----------------|4-------7-6-4-||----4---||----4---||----4---|
|--4-4-4-4-4-4-4-|--------------||--------||--------||--------|
|----------------|--------------||--------||--------||--------|

||4-2---4-||4-2---4-||4-2---4-||4-2---4-||4-2---4-|--|
||----4---||----4---||----4---||----4---||----4---|--|
||--------||--------||--------||--------||--------|--|
||--------||--------||--------||--------||--------|--|
  development and support by
dmitry ivanov