rock
 
|tablatures   |lyrics   |discussion forums   |more tabs @ XGuitar.com

Beatles tabs

Dig A Pony bass tab

Dig A Pony.btab
Beatles

Basstab by Jan Bjorklund, Finland;
jani_bjorklund@yahoo.se
You are welcome to request for basstabs or standard notation!
Bienvenidos a pedirme transcripciones para el bajo!

TablEdited by Jan Bjorklund for Joe
Tuning : E A D G 	Time Signature: 3/4

 |       |       |        |       |       |        |       |       |
|----------------0-------|----------------7-------|------------------------|
|--------0---------------|--------7-----9-------9-|7-----7-7---------------|
|------2-------7-------7-|------9-----------------|----------------------7-|
|3-----------------------|10----------------------|--------------8-9-------|

 |       |       |        |       |       |        |       |       |
|------------------------|----------------0-------|----------------7-------|
|----7-------------------|--------0---------------|--------7-----9-------9-|
|7h9-----9-----7-------0-|------2-------7-------7-|------9-----------------|
|----------------9-------|3-----------------------|10----------------------|

 |       |       |        |       |       |        |       |       |
|------------------------|------------------------|------------------------|
|7-----7-7---------------|----7-------------------|------------------------|
|----------------------7-|7h9-----9-----7-------0-|0-----------------------|
|--------------8-9-------|----------------9-------|------------------------|

 |       |       |        |       |       |        |       |       |
|------------------------|2-----------------------|2-----------------------|
|----------------2-------|------------------------|----------------2-------|
|------------------------|------------------------|--------4---------------|
|------------------------|------------------------|------------------------|

 |       |       |        |       |       |        |       |       |
|------------------------|------------------------|------------------------|
|4-----------------------|4-------2---------------|------------------------|
|----------------------4-|----------------4-------|2-----------------------|
|------------------------|------------------------|------------------------|

 |       |       |        |       |       |        |       |       |
|0-----------------------|0-------2-------2-------|4-----------------------|
|----------------------0-|------------------------|------------------------|
|------------------------|------------------------|------------------------|
|------------------------|------------------------|------------------------|

 |       |       |        |       |       |        |       |       |
|0-----------------------|------------------------|------------------------|
|------------------------|2-2-2---2-----2-------2-|------------------------|
|------------------------|------------------------|------------------------|
|------------------------|------------------------|------------------------|

 |       |       |        |       |       |        |       |       |
|2-----------------------|------------------------|------------------------|
|------------------------|----------------2-------|------------------------|
|------------------------|------------------------|0-----------------------|
|------------------------|------------------------|------------------------|

 |       |       |        |       |       |        |       |       |
|2-----------------------|------------------------|------------------------|
|----------------2-------|4-----------------------|4-------2---------------|
|--------4---------------|----------------------4-|----------------4-------|
|------------------------|------------------------|------------------------|

 |       |       |        |       |       |        |       |       |
|------------------------|------------------------|------------------------|
|------------------------|5-------------------3---|------------------------|
|2-----------------------|------------------------|--------0-------1-------|
|------------------------|------------------------|3-----------------------|

 |       |       |        |       |       |        |       |       |
|4-----------------------|0-----------------------|------------------------|
|------------------------|------------------------|------------------------|
|------------------------|------------------------|------------------------|
|------------------------|------------------------|0-----0-0-----0-0-------|

 |       |       |        |       |       |        |       |       |
|------------------------|------------------------|----------------6h7---6-|
|------------------------|----------------0-------|4-------7---------------|
|7-7-7---7-7-7---7/--5---|--------2---------------|------------------------|
|------------------------|3-----------------------|------------------------|

 |       |       |        |       |       |        |       |       |
|--------------5-6-----9-|11------11----9-----9---|----------------0-------|
|7-----------------------|----------------1011----|--------0---------------|
|------------------------|------------------------|------2-------7-------7-|
|------------------------|------------------------|3-----------------------|

 |       |       |        |       |       |        |       |       |
|----------------7-------|------------------------|------------------------|
|--------7-----9-------9-|------------and  so  on  ............------------|
|------9-----------------|------------------------|------------------------|
|10----------------------|------------------------|------------------------|


Transcribe! 6.0 transcription http://www.seventhstring.demon.co.uk/
Created with TablEdit http://www.tabledit.com/
http://www.geocities.com/jani_bjorklund/janis.html?1058405404377
  development and support by
dmitry ivanov