rock
 
|tablatures   |lyrics   |discussion forums   |more tabs @ XGuitar.com

Beatles tabs

Dear Prudence bass tab

Title       : Dear Prudence
Artist      : The Beatles
Album       : The Beatles
Tabbed By   : Ken Robertson
--------------------------------------------------------------------------



G---7---7---7---7---7---7---7---7-|
D---------------------------------|
A---------------------------------|
E---------------------------------|


G-------7-5----5-4----4-3----3------7-5----------------------------|
D---7--------------------------7-------------------2---------------|
A-----5------5------5------5------5------5-4---3-5---3-------2-3-5-|
E--------------------------------------------------------3-5-------|


G---------7-5-5-----5-4-4-----4-3-3-----3---------7-5-5-----5-4-4-
D---7-7-----------------------------------7-7---------------------
A-------5---------5---------5---------5---------5---------5-------
E-----------------------------------------------------------------


G-----4-3-3-----3---------7-5-5-----5-4-4-----4-3-3-----3---------7-5-5---
D-----------------7-7-------------------------------------7-7-------------
A---5---------5---------5---------5---------5---------5---------5---------
E-------------------------------------------------------------------------


G-----5-4-4-----4-3-3-----3-------------------------------------------------
D-------------------------------------------------------------------4-------
A---5---------5---------5-----5-5--5-3-3--3-2-2--2-1-1---3--5-5-5-7---5-7-5-
E---------------------------------------------------------------------------


G-------------------|---7---7---7---7---7---7---7---7---7---7---7---7---7---
D-------------------|-7-------7-------7-------7-------7-------7-------7-----
A---3---2-----2-3-5-|-----5-------5-------5-------5-------5-------5-------5-
E---------3-5-------|-------------------------------------------------------


G---7---7---7-|-------------------------------|
D-----7-------|---------6-6-6---5-5-5---7-----|
A---------5---|-8-8-8-----------------------5-|
E-------------|-------------------------------|


G---------7-5-5-----5-4-4-----4-3-3-----3---------7-5-5-----5-4-4-
D---7-7-----------------------------------7-7---------------------
A-------5---------5---------5---------5---------5---------5-------
E-----------------------------------------------------------------


G-----4-3-3-----3---------7-5-5-----5-4-4-----4-3-3-----3---------7-5-5---
D-----------------7-7-------------------------------------7-7-------------
A---5---------5---------5---------5---------5---------5---------5---------
E-------------------------------------------------------------------------


G-----5-4-4-----4-3-3-----3---------------------------------------------
D-----------------------------7-5---------------------------------------
A---5---------5---------5---------5-5-5-3-3-3-3-2-2-2-3-1-1-1-1-3-5-5-5-
E-----------------------------------------------------------------------


G---------------------------|-----------------------------------
D---2-----2-----------------|-----------------------------------
A-------5---3---3-2-----2-3-|-5---5-3-3---3-2-2---2-1-1-1-1-3---
E-----2-------------3-5-----|-----------------------------------


G-----------------------------------------------------------------
D-----------------------------------------------------------------
A---5---5-3-3---3-2-2---2-1-1-1-1-3---5---5-3-3---3-2---2-1-1---3-
E-----------------------------------------------------------------


G-----------------------------------|---------------------------|
D-----------------------------------|---------------------------|
A---5---5-3-3---3-2---2-1-1-1-1---3-|-5---5-3-3---2---2---1---1-|
E-----------------------------------|-----------0-2-5-----------|


G---------------------|
D---------------------|
A---5-5-5-5-5-------5-|
E--------------0-2-5--|


G---------------------|-----------------|-----------------|
D---------------------|-----------------|-----------------|
A---3-3-3-3-3-------3-|-2-2-2-2-2-----3-|-1-1-1-1-1-----3-|
E-------------0-2-5---|-----------0-2---|-----------2-5---|


G-----------------------------7-7-7/14-|
D-----------------2--------------------|
A---5-5-5-----0-2-----3---2------------|
E---------0-2--------------------------|
  development and support by
dmitry ivanov