rock
 
|tablatures   |lyrics   |discussion forums   |more tabs @ XGuitar.com

Beatles tabs

Come Together bass tab

Attached: "Come Together" by The Beatles (and later Aerosmith)
COME TOGETHER
Performed by The Beatles (and later Aerosmith)
Written by Lennon/McCartney

Here are the riffs... put em together yourself.


Verse riff 1:                
G|---------10---------
D|------7/-------12---
A|-5-5----------------
E|--------------------

Verse riff 2:
G|---------10----10^12^10-----
D|------7/----------------12--
A|-5-5------------------------
E|----------------------------

Verse riff 3:
G|--------------------
D|---------10---------
A|------7/-------12---
E|-5-5----------------

Chorus riff (exact number of notes may not be right... it's a basic B-A-G-A thing):
G|----------------------------------
D|----------------------------------
A|----------------------------------
E|-7-7-7-7-7-7-7-5-5-3-3-3-3-3-3-5--


yay... my first tab.

~Meakim
(mistameaks@aol.com)
  development and support by
dmitry ivanov