rock
 
|tablatures   |lyrics   |discussion forums   |more tabs @ XGuitar.com

Beatles tabs

Chains bass tab

BEATLES_CHAINS

Basstab by Jan Bjorklund, Finland 
You are welcome to request for basstabs!
Fingering and positions as suggested by TablEdit, please use common sense!

TablEdited by Jan Bjorklund
Tuning : E A D G 	Time Signature: 4/4


|3---|3---0-0-|3---|3-----0-0-|3-----|3---0-|3---|3-3-1-0---|
|--3-|--3-----|--3-|--3-3-----|--3-3-|--3---|--3-|--------3-|
|----|--------|----|----------|------|------|----|----------|
|----|--------|----|----------|------|------|----|----------|


|--3-|--3---|3---0-|3-2-0-|----5---|----3---|3-----|3-----------0-0-|
|1---|1---1-|--3---|------|3-3---3-|1-1---1-|--3-3-|--3-3-3-3-3-----|
|----|------|------|------|--------|--------|------|----------------|
|----|------|------|------|--------|--------|------|----------------|


|3-----|3---0-|3---|3-3-1-0---|--3-|--3---|3---0-|3-2-0-|----5---|
|--3-3-|--3---|--3-|--------3-|1---|1---1-|--3---|------|3-3---3-|
|------|------|----|----------|----|------|------|------|--------|
|------|------|----|----------|----|------|------|------|--------|


|----3---|3-----|3-3-1-0-3-0---|--0-3-0-3-|--0-3-0-3-|3-3---------|
|1-1---1-|--3-3-|------------3-|1---------|1---------|----0-3-0-3-|
|--------|------|--------------|----------|----------|------------|
|--------|------|--------------|----------|----------|------------|


|3-3-1-0-3-0---|--0-3-0-3-|--0-3---|----5-5-|------------|3-----|
|------------3-|1---------|1-----1-|3-3-----|3-3-1-0-0---|--3-3-|
|--------------|----------|--------|--------|----------3-|------|
|--------------|----------|--------|--------|------------|------|


|3---0-|3---|3-3-1-0---|--3-|--3---|3---0-|3-2-0-|----5---|----3---|
|--3---|--3-|--------3-|1---|1---1-|--3---|------|3-3---3-|1-1---1-|
|------|----|----------|----|------|------|------|--------|--------|
|------|----|----------|----|------|------|------|--------|--------|


|3-----|3-3-1-0-3-0---|--0-3-0-3-|--0-3-0-3-|3-3---------|3-3-1-0-3-0---|
|--3-3-|------------3-|1---------|1---------|----0-3-0-3-|------------3-|
|------|--------------|----------|----------|------------|--------------|
|------|--------------|----------|----------|------------|--------------|


|--0-3-0-3-|--0-3---|----5-5-|------------|3-----|3---0-|3---|
|1---------|1-----1-|3-3-----|3-3-1-0-0---|--3-3-|--3---|--3-|
|----------|--------|--------|----------3-|------|------|----|
|----------|--------|--------|------------|------|------|----|


|3-3-1-0---|--3-|--3---|3---0-|3-2-0-|----5---|----3---|3-----|
|--------3-|1---|1---1-|--3---|------|3-3---3-|1-1---1-|--3-3-|
|----------|----|------|------|------|--------|--------|------|
|----------|----|------|------|------|--------|--------|------|


|3-3-1-0-3-0---|3-----|3---2-|3---|3---2-|3---|3-1-0---|----3-3-|
|------------3-|--3-3-|--3---|--3-|--3---|--3-|------3-|1-1-----|
|--------------|------|------|----|------|----|--------|--------|
|--------------|------|------|----|------|----|--------|--------|


|----3---|3-----|3---2-|3---|3---2-|3---|3-1-0---|----3-3-|----3---|
|1-1---1-|--3-3-|--3---|--3-|--3---|--3-|------3-|1-1-----|1-1---1-|
|--------|------|------|----|------|----|--------|--------|--------|
|--------|------|------|----|------|----|--------|--------|--------|


|3-----|3---2-|3---|3---2-|3---|3-1-0---|----3-3-|----3---|3-----|
|--3-3-|--3---|--3-|--3---|--3-|------3-|1-1-----|1-1---1-|--3-3-|
|------|------|----|------|----|--------|--------|--------|------|
|------|------|----|------|----|--------|--------|--------|------|

|
|3---2-|3---|3---2-|3---|3-1-0---|----3-3-|----3---|3---||
|--3---|--3-|--3---|--3-|------3-|1-1-----|1-1---1-|--3-||
|------|----|------|----|--------|--------|--------|----||
|------|----|------|----|--------|--------|--------|----||



Created with TablEdit http://www.tabledit.com/
  development and support by
dmitry ivanov