rock
 
|tablatures   |lyrics   |discussion forums   |more tabs @ XGuitar.com

Beatles tabs

Cant Buy Me Love bass tab

The Beatles - Can't Buy Me Love (Bass Tab)
~~~~~~~~~~~~~~~~~~~~~~~~~~~~~~~~~~~~~~~~~~

Intro/Outro: No Bass.


Verse: C C7 F C G7 F7 C

Over verse play something like this,
with minor variations

C

G---------------------------------
D---------5--5--------5--5--------
A---3--3--------3--3--------------
E---------------------------------


F

G---------5--5--------5--5--------
D---3--3--------3--3--------------
A---------------------------------
E---------------------------------


G

G---------7--7--------7--7--------
D---5--5--------5--5--------------
A---------------------------------
E---------------------------------



Chorus: Em Am F C Em Am Dm7 G7

Over chorus play something like this,
with minor variations.


Em

G----------------
D----------------
A----------2--2--
E---0---0--------

Am

G----------------
D----------2--2--
A---0---0--------
E----------------

F7

G---------5--5--
D---3--3--------
A---------------
E---------------


G7

G---------7--7--
D---5--5--------
A---------------
E---------------






-*- Transcribed by (eugrid@fpm.kubsu.ru)
  development and support by
dmitry ivanov