rock
 
|tablatures   |lyrics   |discussion forums   |more tabs @ XGuitar.com

Beatles tabs

Because guitar tab

From: Paul Zimmerman 
Subject: TAB: Because - Beatles


Because
Beatles

||-------0---------|-------0---------|-----------------|-----------------|
||-----1---1-------|-----1---1-------|-----2-4-2-------|-----1-4-1-------|
||---2-------2---2-|---2-------2---2-|---2-------2-----|---1-------1---1-|
||-----------------|-----------------|-1-----------2-4-|-1---------------|
||-4-----------4---|-4-----------4---|-----------------|-----------------|
||-----------------|-----------------|-----------------|-------------4---|




|-------0---------|-------0---------|-------3---------|-------2---------|
|-----2---2-------|-----1---1-------|-----2---2-------|-----2-----------|
|---2-------2---2-|---2-------2---2-|---0-------0---0-|---0-------------|
|-------------2---|-----------------|-1-----------2---|-----------------|
|-0---------------|-4-----------4---|-----------------|-0---------------|
|-----------------|-----------------|-----------------|-----------------|



|-------2---------|-------2-1-------||
|-----3---3-------|-----3-----------||
|---2-------2---2-|---4-----------o-||
|-0-----------4---|-0-------------o-||
|-----------------|-----------------||
|-----------------|-----------------||
  development and support by
dmitry ivanov