rock
 
|tablatures   |lyrics   |discussion forums   |more tabs @ XGuitar.com

Beatles tabs

Because bass tab

Beatles - Because
Submitted By: Anavrin
EMail: joe_the_man3@hotmail.com
As tabbed by Joe Muggah


Intro
G|------7~------|
D|--------------|
A|--5~----------|
E|--------------|

Verse 1
G|-------------------------------------------------|
D|-----------------------------------6~-----6------|
A|--4~-----7-6-4~-----9-7-6~-----7-9---------------|
E|-------------------------------------------------|

(continued)
G|--------------------------------------------7~---|
D|--7~---------------------------7~----------------|
A|---------7---4~-----7-6---------------5~---------|
E|------------------------5~-----------------------|

Verse 2
G|-------------------------------------------------|
D|-------------------------------------------------|
A|----------4----------6-----------6---------------|
E|--2~----------2~---------4~----------4~----------|


Intro
Verse 1
Verse 2
Verse 1
  development and support by
dmitry ivanov