rock
 
|tablatures   |lyrics   |discussion forums   |more tabs @ XGuitar.com

Beatles tabs

Back In The USSR bass tab

Artist: The Beatles
Song : Back in the USSR
Album :
Tuning: G D A E

Tabbed by Andrew Roth (CptShiner@aol.com)

Because the piano and bass share the low end, certain parts
of the line may not be exactly what the bass is supposed to
play, but this transcription will sound correct with or with-
out a piano accompaniment.

Intro (x4)
|-----------------|
|-----------------|
|-7-7-7-7-7-7-7-7-|
|-----------------|

First Verse (x2)
|-----------------|-----------------|-----------------|-----------------|
|-----------------|-----------------|-----------------|-----------------|
|-----------------|-5-5-5-5-5-5-5-5-|-3-3-3-3-3-3-3-3-|-5-5-5-5-5-5-5-5-|
|-5-5-5-5-5-5-5-5-|-----------------|-----------------|-----------------|

First Chorus
|-----------------|-----------------|---------------------|
|-----------------|-----------------|---------------------|
|-----------------|-3-3-3-3-3-3-3-3-|-5-5-5-5-5-5-5-5---5-|
|-5-5-5-5-5-5-5-5-|-----------------|---------------------|

|-----------------|----------|
|-----------------|----------|
|-----------------|---5-6-7--|
|-5-5-5-5-5-5-5-5-|-5--------|

First Verse(x2)

Second Chorus
|-----------------|-------------------------------------|
|-----------------|-------------------------------------|
|-----------------|-3-3-3-3-3-3-3-3-5-5-5-5-5-5-5-5---5-|
|-5-5-5-5-5-5-5-5-|-------------------------------------|

|-----------------|-----------------|
|-----------------|-----------------|
|-----------------|-----------------|
|-5-5-5-5-5-5-5-5-|-5-5-7-7-8-8-9-9-|

Bridge
|-----------------------|-----------------------|-----------------|-----------------|
|-----------------------|-----------------------|-----------------|-----------------|
|-----------------------|-----------------------|-----------------|-----------------|
|-9h10-10-10-9h10-10-10-|-9h10-10-10-9h10-10-10-|-4h5-5-5-4h5-5-5-|-5-5-7-7-8-8-9-9-|

|-----------------------|-----------------|-----------------|-----------------|---------|
|-----------------------|-----------------|-----------------|-----------------|---------|
|-----------------------|-7-7-7-7-7-7-7-7-|-5-5-5-5-5-5-5-5-|-----------------|--5-6-7--|
|-10--10-9--9-8--8-7--7-|-----------------|-----------------|-5-5-5-5-5-5-5-5-|-5-------|

First Verse(x2)

Second Chorus

Bridge

First Verse(x2)

First Chorus

Outro(x6) End On
|-------------------| |---|
|-------------------| |---|
|-------------------| |---|
|-5-5-5-5-5-5-5-5-5-| |-5-|

Any comments/corrections please mail me at CptShiner@aol.com
  development and support by
dmitry ivanov