rock
 
|tablatures   |lyrics   |discussion forums   |more tabs @ XGuitar.com

Beatles tabs

Any Time At All bass tab

ANY TIME AT ALL (Bassline)
                           As recorded by The Beatles
                    (From the 1964 Album A HARD DAY'S NIGHT)

Words and Music by John Lennon & Paul McCartney
Transcribed by Slowhand

Gtr I (E A D G) - 'Paul McCartney (Bass)'

              Chorus
  Q=140
           $
 4/4
  Gtr I
  W            Q  Q  E E E E   +Q   Q  E E +E  E
|----------||----------------|-------------------|
|----------||o---------------|-------------------|
|----------||o-2--2--2-0-2-5-|-(5)--5--5-5-(5)-5-|
|----------||----------------|-------------------|


  Q.   E H      Q.   E Q.   E   Q.   E Q  E E   Q.   E Q.   E
|-------------|---------------|---------------|----------------|
|-------------|---------------|---------------|----------------|
|-------------|---------------|---------------|----------------|
|-5----5-5----|-5----5-5----6-|-7----7-7--7-5-|-3----3-5----5--|


                               1st & 2nd Verses
                               1.,2.
                     To Coda
  Q.   E H      Q.   E Q  Q     Q.   E H      Q.   E Q  Q
|-------------|--------------||-------------|---------------|
|-------------|-----------7--||-------------|---------------|
|-5----5-5----|-5----5-5-----||-5----5-5----|-4----4----4---|
|-------------|--------------||-------------|--------5------|


  Q.   E Q  Q    Q.   E Q  E E   Q.   E H      Q.   E H
|--------------|---------------|-------------|-------------|
|--------------|---------------|-------------|-------------|
|-2----2----2--|-1----1----1---|-------------|-------------|
|--------2-----|--------3----3-|-5----5-5----|-5----5-5----|


  Q.   E H      Q.   E Q  Q    Q.   E Q  Q    Q.   E Q  Q
|-------------|--------------|--------------|---------------|
|-------------|--------------|--------------|---------------|
|-5----5-5----|-4----4----4--|-2----2----2--|-1----1----1---|
|-------------|--------5-----|--------2-----|--------3------|


  Q.   E Q  Q    Q.   E Q  Q    Q.   E Q  Q    Q  Q  H
|--------------|--------------|--------------|-------------||
|--------------|-----------7--|--------------|------------o||
|--------------|--------7-----|-5----5-------|-5----------o||
|-5----5-2--5--|-5----5-------|--------5--5--|-------------||


 Interlude
  3.
  Q.   E H      Q.   E H      Q.   E H
|-------------|-------------|-------------|
|-------------|-------------|-------------|
|-------------|-------------|-------------|
|-5----5-5----|-5----5-5----|-5----5-5----|


  Q.   E H      Q.   E H      Q.   E H
|-------------|-------------|-------------|
|-------------|-------------|-------------|
|-------------|-------------|-------------|
|-5----5-5----|-3----3-3----|-5----5-5----|


                                        D.S. al Coda
  Q.   E H      Q.   E H      Q.   E H      Q  Q  H
|-------------|-------------|-------------|-------------||
|-------------|-------------|-------------|-------------||
|-------------|-------------|-5----5-5----|-5-----------||
|-3----3-3----|-5----5-5----|-------------|-------------||


 Outro
  &
  Q.   E Q  Q    Q.   E H      Q.   E E E +E  E   Q  Q  H
|--------------|-------------|------------------|------------*|
|--------------|-------------|------------------|------------*|
|--------------|-------------|-5----5-5-5-(5)-5-|-5-----5----*|
|-3----3-3--3--|-5----5-5----|------------------|------------*|
  development and support by
dmitry ivanov