rock
 
|tablatures   |lyrics   |discussion forums   |more tabs @ XGuitar.com

Beatles tabs

Act Naturally bass tab

ACT NATURALLY (Bassline)
                           As recorded by The Beatles
                           (From the 1965 Album HELP!)

Words by Vonnie Morrison

Music by Johnny Russell
Arranged by The Beatles
Transcribed by Slowhand (http://www.instantpowertabs.de.vu)

Gtr I (E A D G) - 'Paul (Bass)'

 Intro
  Q=175(8=s8)
 4/4
  Gtr I
  W          H    H      Q  Q  Q  Q    H    H
|----------|-----------|-------------|-----------|
|----------|-----------|----------4--|-5---------|
|----------|-5---------|-5--5--7-----|------5----|
|----------|------5----|-------------|-----------|


                 1st, 2nd & 4th Verses
              $
  Q  Q  Q  Q      H    H      H    Q  Q    H    H
|-------------||------------|------------|-----------|
|-5--------4--||o-5---------|-5----------|-----------|
|----5--7-----||o------5----|------5--2--|-3---------|
|-------------||------------|------------|------3----|


  H    H      H    H      H    Q  Q    H    H
|-----------|-----------|------------|-----------|
|-----------|-5---------|-5----------|-----------|
|-3---------|------5----|------2--3--|-5----0----|
|------3----|-----------|------------|-----------|


  Q  Q  Q  Q    H    H      H    Q  Q    H    H
|-------------|-----------|------------|-----------|
|----------4--|-5----0----|-5----0-----|-----------|
|-5--5--7-----|-----------|---------2--|-3---------|
|-------------|-----------|------------|------3----|


                                           To Coda
  H    Q  Q    H    H      H    Q  Q    H    Q  Q
|------------|-----------|------------|------------||
|------------|-----------|---------4--|-5----5--5--||
|-3-------3--|-5---------|-5----7-----|------------||
|------3-----|------5----|------------|------------||


               Bridge
  1.
  Q  Q  H       H    H      Q  Q  Q  Q    H    H
|------------||-----------|-------------|-----------|
|-5----------||-----------|----------4--|-5---------|
|------------||-5---------|-5--5--7-----|------5----|
|------------||------5----|-------------|-----------|


  Q  Q  Q  Q    H    H      H    Q  Q    H    H
|-------------|-----------|------------|-----------|
|-5--5--4--2--|-----------|---------4--|-5----0----|
|-------------|-5----0----|-5----7-----|-----------|
|-------------|-----------|------------|-----------|


  H    Q  Q    H    H      H    Q  Q    H    H
|------------|-----------|------------|-----------|
|-5----4--2--|-----------|------2--4--|-5----0----|
|------------|-5----0----|-5----------|-----------|
|------------|-----------|------------|-----------|


  H    Q  Q    Q.   E H      Q.   E H      Q.   E H
|------------|-------------|-------------|-------------|
|-5----0--5--|-7----7-7----|-7----7-7----|-------------|
|------------|-------------|-------------|-5----5-5----|
|------------|-------------|-------------|-------------|


                               Guitar Solo
                 2.
  Q  Q  Q  Q      Q  Q  H       H    H      H    Q  Q    H    H
|--------------||------------||-----------|------------|-----------|
|----------4--o||------------||-----------|------------|-5---------|
|-5--5--7-----o||------------||-5---------|-5-------5--|------5----|
|--------------||-3----------||------5----|------5-----|-----------|


  Q  Q  Q  Q    Q  E E E E +Q     Q  Q  Q  Q    H    H
|-------------|----7-----5-(5)--|-7--5--4-----|-----------|
|-5--5--4--2--|------5-7--------|----------7--|-5---------|
|-------------|-5---------------|-------------|------5----|
|-------------|-----------------|-------------|-----------|


               3rd Verse
  H    Q  Q     H    H      H    Q  Q    H    H
|------------||-----------|------------|-----------|
|-5----------||-5---------|-5----------|-----------|
|------2--5--||------5----|------5-----|-3---------|
|------------||-----------|---------7--|------3----|


  H    H      H    H      H    Q  Q    H    H
|-----------|-----------|------------|-----------|
|-----------|-5---------|-5----------|-----------|
|-3---------|------5----|------2--3--|-5---------|
|------3----|-----------|------------|------5----|


  Q  Q  Q  Q    H    H      H    Q  Q    H    H
|-------------|-----------|------------|-----------|
|-------2--4--|-5---------|-5----------|-----------|
|-5--5--------|------5----|------5--2--|-3---------|
|-------------|-----------|------------|------3----|


  H    Q  Q    H    H      H    Q  Q    H    Q  Q
|------------|-----------|------------|------------|
|------------|-----------|---------4--|-5----5--5--|
|-3-------3--|-5---------|-5----7-----|------------|
|------3-----|------5----|------------|------------|


               Bridge
  Q  Q  H       H    H      Q  Q  Q  Q    H    H
|------------||-----------|-------------|-----------|
|-5----------||-----------|-------2--4--|-5---------|
|------------||-5---------|-5--5--------|------5----|
|------------||------5----|-------------|-----------|


  Q  Q  Q  Q    H    H      H    Q  Q    H    H
|-------------|-----------|------------|-----------|
|-5--5--4--2--|-----------|------2--4--|-5---------|
|-------------|-5---------|-5----------|------5----|
|-------------|------5----|------------|-----------|


  H    Q  Q    H    H      H    Q  Q    H    H
|------------|-----------|------------|-----------|
|-5----4--2--|-----------|------2--4--|-5---------|
|------------|-5---------|-5----------|------5----|
|------------|------5----|------------|-----------|


  H    Q  Q    Q.   E H      Q.   E H      Q.   E H
|------------|-------------|-------------|-------------|
|-5-------5--|-7----7-7----|-7----7-7----|-------------|
|------5-----|-------------|-------------|-5----5-5----|
|------------|-------------|-------------|-------------|


                Outro
 D.S. al Coda &
  Q  Q  Q  Q     Q  Q  H      H    H      Q  Q  Q  Q
|-------------||------------|-----------|-------------|
|-------2--4--||------------|-----------|-------------|
|-5--5--------||------------|-5----5----|-5--5--5--5--|
|-------------||-3----------|-----------|-------------|


  Q  Q  Q  Q    W          +W
|-------------|----------|--------*|
|-5-----------|----------|--------*|
|----7--5-----|----------|--------*|
|----------7--|-3--------|-(3)----*|
  development and support by
dmitry ivanov