rock
 
|tablatures   |lyrics   |discussion forums   |more tabs @ XGuitar.com

Beatles tabs

A Taste Of Honey bass tab

Beatles - A Taste Of Honey
Submitted By: Untitled Band Gutiarist
EMail: mediamongol@hotmail.com


|--|||--|----|----|----|----|----|--|--|--|--|--|--|--|----|
|4-|||2-|4---|4---|4---|4---|4---|4-|4-|--|4-|4-|4-|--|4---|
|--|||--|--4-|--4-|--4-|--4-|----|--|--|2-|--|--|--|2-|--4-|
|--|||--|----|----|----|----|----|--|--|--|--|--|--|--|----|


|--|--|--|----|------|------|--|----------|--------|----------|
|4-|--|2-|4---|4-4---|4-----|4-|4---2-0---|----4-1-|4-4-2-0---|
|--|0-|--|--4-|----4-|--4-4-|--|--------4-|2-2-----|--------4-|
|--|--|--|----|------|------|--|----------|--------|----------|


|--------|--2-----|--------|----|----|----|----|----|--|--|--|
|----4---|----2---|2-2---2-|4---|4---|4---|4---|4---|4-|4-|--|
|2-2---2-|0-----0-|----2---|--4-|--4-|--4-|--4-|----|--|--|2-|
|--------|--------|--------|----|----|----|----|----|--|--|--|


|--|--|--|--|----|--|--|--|----|------|------|--|----------|
|4-|4-|4-|--|4---|4-|--|2-|4---|4-4---|4-----|4-|4---2-0---|
|--|--|--|2-|--4-|--|0-|--|--4-|----4-|--4-4-|--|--------4-|
|--|--|--|--|----|--|--|--|----|------|------|--|----------|


|--------|----------|--------|--2-----|--------|----|----|----|
|----4-1-|4-4-2-0---|----4---|----2---|2-2---2-|4---|4---|4---|
|2-2-----|--------4-|2-2---2-|0-----0-|----2---|--4-|--4-|--4-|
|--------|----------|--------|--------|--------|----|----|----|



|----|----|--|--|--|--|--|--|--|----|--|--|--|----|------|------|
|4---|4---|4-|4-|--|4-|4-|4-|--|4---|4-|--|2-|4---|4-4---|4-----|
|--4-|----|--|--|2-|--|--|--|2-|--4-|--|0-|--|--4-|----4-|--4-4-|
|----|----|--|--|--|--|--|--|--|----|--|--|--|----|------|------|


|--|----------|--------|----------|--------|----||--||----|----|
|4-|4---2-0---|----4-1-|4-4-2-0---|----4---|----||2-||4---|4---|
|--|--------4-|2-2-----|--------4-|2-2---2-|0---||--||--4-|--4-|
|--|----------|--------|----------|--------|----||--||----|----|


|----|--|
|4---|4-|
|--4-|--|
|----|--|
  development and support by
dmitry ivanov