rock
 
|tablatures   |lyrics   |discussion forums   |more tabs @ XGuitar.com

Beatles tabs

A Hard Day's Night bass tab

A Hard Day's Night
The Beatles

 |   |   |   |    |   |   |   |    |   |   |   |    |   |   |   |
|----------------|----------------|----------------|----------------|
|----------------|0---------------|----------------|----------------|
|----------------|----------------|--------3---3---|----------------|
|----------------|----------------|3---3-----------|3---3---3---3---|

 |   |   |   |    |   |   |   |    |   |   |   |    |   |   |   |
|----------------|----------------|----------------|----------------|
|----------------|----------------|----------------|----------------|
|----------------|----------------|--------3---3---|----------------|
|1---1---1-1-1---|3---3---3---3---|3---3-----------|3---3---3---3---|

 |   |   |   |    |   |   |   |    |   |   |   |    |   |   |   |
|----------------|----------------|----------------|----------------|
|----------------|----------------|----------------|0---0---0---0---|
|----------------|----------------|3---3---3---3-3-|----------------|
|1---1---1-1-1---|3---3---3---3---|----------------|----------------|

 |   |   |   |    |   |   |   |    |   |   |   |    |   |   |   |
|----------------|----------------|----------------|----------------|
|----------------|----0-0-0-0-0-0-|----------------|----------------|
|--------3---3---|----------------|--------3---3---|----------------|
|3---3-----------|3---------------|3---3-----------|3---3---3---3---|

 |   |   |   |    |   |   |   |    |   |   |   |    |   |   |   |
|----------------|----------------|----------------|----------------|
|----------------|----------------|----------------|----------------|
|----------------|----------------|--------3---3---|----------------|
|1---1---1-1-1---|3---3---3---3---|3---3-----------|3---3---3---3---|

 |   |   |   |    |   |   |   |    |   |   |   |    |   |   |   |
|----------------|----------------|----------------|----------------|
|----------------|----------------|----------------|0---0---0---0---|
|----------------|----------------|3---3---3---3-3-|----------------|
|1---1---1-1-1---|3---3---3---3---|----------------|----------------|

 |   |   |   |    |   |   |   |    |   |   |   |    |   |   |   |
|----------------|----------------|----------------|----------------|
|----------------|----------------|----------------|----------------|
|--------3---3---|----------------|2---2---2---2---|----------------|
|3---3-----------|3---3---3---3---|----------------|0---0---0---0---|

 |   |   |   |    |   |   |   |    |   |   |   |    |   |   |   |
|----------------|----------------|----------------|----------------|
|----------------|----------------|----------------|----------------|
|2---2---2---2---|2---2---2---2---|----------------|----------------|
|----------------|----------------|3---3---3---3---|0---0---0---0---|

 |   |   |   |    |   |   |   |    |   |   |   |    |   |   |   |
|----------------|----------------|----------------|----------------|
|----------------|0---0---0---0---|----------------|----------------|
|3---3---3---3---|----------------|--------3---3---|----------------|
|----------------|----------------|3---3-----------|3---3---3---3---|

 |   |   |   |    |   |   |   |    |   |   |   |    |   |   |   |
|----------------|----------------|----------------|----------------|
|----------------|----------------|----------------|----------------|
|----------------|----------------|--------3---3---|----------------|
|1---1---1-1-1---|3---3---3---3---|3---3-----------|3---3---3---3---|

 |   |   |   |    |   |   |   |    |   |   |   |    |   |   |   |
|----------------|----------------|----------------|----------------|
|----------------|----------------|----------------|0---0---0---0---|
|----------------|----------------|3---3---3---3-3-|----------------|
|1---1---1-1-1---|3---3---3---3---|----------------|----------------|

 |   |   |   |    |   |   |   |    |   |   |   |    |   |   |   |
|----------------|----------------|----------------|----------------|
|----------------|----0-0-0-0-0-0-|----------------|----------------|
|--------3---3---|----------------|--------3---3---|----------------|
|3---3-----------|3---------------|3---3-----------|3---3---3---3---|

 |   |   |   |    |   |   |   |    |   |   |   |    |   |   |   |
|----------------|----------------|----------------|----------------|
|----------------|--------0-0-0---|----------------|----------------|
|----------------|----------------|--------3---3---|----------------|
|1---1---1-1-1---|3---3-----------|3---3-----------|3---3---3-3-3---|

 |   |   |   |    |   |   |   |    |   |   |   |    |   |   |   |
|----------------|----------------|----------------|----------------|
|----------------|----------------|----------------|0---0---0---0---|
|----------------|------------0-2-|3---3---3---3-3-|----------------|
|1---1---1---1-1-|3---3---3-3-----|----------------|----------------|

 |   |   |   |    |   |   |   |    |   |   |   |    |   |   |   |
|----------------|----------------|----------------|----------------|
|----------------|----------------|----------------|----------------|
|--------3---3---|----------------|2---2---2---2---|----------------|
|3---3-----------|3---3---3---3---|----------------|0---0---0---0---|

 |   |   |   |    |   |   |   |    |   |   |   |    |   |   |   |
|----------------|----------------|----------------|----------------|
|----------------|----------------|----------------|----------------|
|2---2---2---2---|2---2---2---2---|----------------|----------------|
|----------------|----------------|3---3---3---3-3-|0---0---0---0---|

 |   |   |   |    |   |   |   |    |   |   |   |    |   |   |   |
|----------------|----------------|----------------|----------------|
|----------------|0-0-0-0-0-0-0-0-|----------------|----------------|
|3---3-3-3-3-3-3-|----------------|--------3---3---|----------------|
|----------------|----------------|3---3-----------|3---3---3---3---|

 |   |   |   |    |   |   |   |    |   |   |   |    |   |   |   |
|----------------|----------------|----------------|----------------|
|----------------|----------------|----------------|----------------|
|----------------|----------------|--------3---3---|----------------|
|1---1---1-1-1---|3---3---3---3---|3---3-----------|3---3---3---3---|

 |   |   |   |    |   |   |   |    |   |   |   |    |   |   |   |
|----------------|----------------|----------------|----------------|
|----------------|----------------|----------------|0---0---0---0---|
|----------------|----------------|3---3---3---3-3-|----------------|
|1---1---1-1-1---|3---3---3---3---|----------------|----------------|

 |   |   |   |    |   |   |   |    |   |   |   |    |   |   |   |
|----------------|----------------|----------------|----------------|
|----------------|--------0-0-0---|----------------|----------------|
|--------3---3---|----------------|--------3---3---|--------3---3---|
|3---3-----------|3---3-----------|3---3-----------|3---3-----------|

 |   |   |   |    |   |   |   |
|----------------|----------------|
|----------------|0---------------|
|--------3---3---|----------------|
|3---3-----------|----------------|


Created with TablEdit http://www.tabledit.com/
  development and support by
dmitry ivanov