rock
 
|tablatures   |lyrics   |discussion forums   |more tabs @ XGuitar.com

Alice_cooper tabs

Welcome To My Nightmare guitar tab

Intro                                               1._____________   2.__________
----||:--------------|---------0-----|--------------|--------------:||------------|
----||:--------------|--------0------|--------------|--------------:||------------|
----||:--------------|-------5-------|--------------|--------------:||------------|
----||:------0^2-----|------5--------|-------0^2----|--------------:||------------|
----||:--0^2---------|---------------|---0^2--------|--------------:||------------|
-12\||:0-----------0-|---------------|0-----------0-|----0--0-0---0:||-0----------|

Verse
||:---0--------------|----------------|---------------------|---------------|
||:--0---------------|----------------|---------------------|---------------|
||:-5----------------|----------------|---------------------|---------------|
||:5-----------------|------2-----0-2-|2--------------------|-------5-2-0-2-|
||:------------------|--------0-2-----|---------------------|---------------|
||:------------------|----------------|---------------------|---------------|
   Welcome to my nightmare              I think you're gonna like it
   A Nocturnal vacation                 Unnecessary sedation
                                       1.__________  2.___________
--------------------------|------------||----------:|| -------------|
--------------------------|------------||----------:|| -------------|
--------------------------|------------||----------:|| -----------0-|
2-------------------------|------------|----------:|| 2--2--0^2----|
--------------------------|------------||2---------:|| -------------|
--------------------------|------------||3---------:|| -------------|
 I think you're gonna feel  you belong
 You want to feel at home  'cause you be               long

-------------|---------------------|------------|---------|---------
-------------|3--------------------|------------|---------|---------
---------2-3-|2--------------------|------------|---------|---------
2----0-2-----|1--------------------|-----------|---------|---------
-------------|2--------------------|------------|---------|---------
-------------|---------------------|------------|---------|---------
                Welcome to my night mare  woah


Em7 VII
||:---------------|-------7----5----3|----------------------------|----7---5---3|
||:---------------|-------8----5----3|----------------------------|----8---5---3|
||:---------------|-------7----6----4|----------------------------|----7---6---4|
||:---------------|------------------|----------------------------|-------------|
||:---------------|------------------|----------------------------|-------------|
||:---------------|------------------|----------------------------|-------------|
Welcome to my breakdown                  I hope I didn't scare you
We sweat and laugh and scream here    'cause life is just a dream here

                                            1.__________________________________
-------------------------|-------------------|--------------|------------------:||
-------------------------|-------------------|--------------|------------------:||
-------------------------|-------------------|--------------|------------------:||
-------------------------|-------------------|--------------|------------------:||
-------------------------|-------------------|--------------|------------------:||
-------------------------|-------------------|--------------|------------------:||
that's just the way are    when we come down
you know inside you feel   right at home

2._______________________________________________________________________________
-------------|-----------|---------------------|--------------|--7--5--3|---------|
-------------|-----------|3--------------------|--------------|--8--5--3|---------|
-------------|-------2-3-|2--------------------|--------------|--7--6--4|-----2-3-|
-------------|---0-2-----|1--------------------|--------------|---------|-0-2-----|
-------------|-----------|2--------------------|--------------|---------|---------|
-------------|-----------|---------------------|--------------|---------|---------|
                            welcome to my breakdown   woah
________________________________________________________
|--------------------|--------------|--7--5--3|-------:||
|3-------------------|--------------|--8--5--3|-------:||
|2-------------------|--------------|--7--6--4|-------:||
|1-------------------|--------------|---------|-------:||
|2-------------------|--------------|---------|-------:||
|--------------------|--------------|---------|-------:||
you're welcome to my nightmare   yeah

Horn Part
||:7-------------|---5-3-5-3-----|-----3-5--|---------:||
||:8-------------|---3-------5-3-|5--5-3-3--|---------:||
||:7-------------|---4-----------|5----4-4--|---------:||
||:--------------|---------------|5---------|---------:||
||:--------------|---------------|----------|---------:||
||:--------------|---------------|----------|---------:||

Em7 VII
||:---------------|-----7-7-7-5-5-5--3|------------------------|----7---5---3|
||:---------------|-----8-8-8-5-5-5--3|------------------------|----8---5---3|
||:---------------|-----7-7-7-6-6-6--4|------------------------|----7---6---4|
||:---------------|-------------------|------------------------|-------------|
||:---------------|-------------------|------------------------|-------------|
||:---------------|-------------------|------------------------|-------------|
Welcome to my nightmare               I think you're gonna like it
We sweat and laugh and scream here    'cause life is just a dream___________ here

                                            1.__________________________________
-------------------------|-------------------|--------------|------------------:||
-------------------------|-------------------|--------------|------------------:||
-------------------------|-------------------|--------------|------------------:||
-------------------------|-------------------|--------------|------------------:||
-------------------------|-------------------|--------------|------------------:||
-------------------------|-------------------|--------------|------------------:||
I think you're gonna feel   you belong
you know inside you feel   right at home

2._______________________________________________________________________________
-------------|-----------|---------------------|--------------|--7--5--3|---------|
-------------|-----------|3--------------------|--------------|--8--5--3|---------|
-------------|-------2-3-|2--------------------|--------------|--7--6--4|-----2-3-|
-------------|---0-2-----|1--------------------|--------------|---------|-0-2-----|
-------------|-----------|2--------------------|--------------|---------|---------|
-------------|-----------|---------------------|--------------|---------|---------|
                            welcome to my nightmare   woah
____________________________________
|--------------------|--------------|
|3-------------------|--------------|
|2-------------------|--------------|
|1-------------------|--------------|
|2-------------------|--------------|
|--------------------|--------------|
you're welcome to my breakdown
  development and support by
dmitry ivanov