rock
 
|tablatures   |lyrics   |discussion forums   |more tabs @ XGuitar.com

Alice_cooper tabs

The Black Widow guitar tab

Title: The Black Widow
Artist: Alice Cooper
Album: Welcome to my nightmare

Instrument: Guitar

Tabbed by:  (Jhon5)

Tuning: Standard (E A D G B E)

Lesin for the timeing
oo
ooRepat
If you are playing this song with no one eils or 1 guitar in a band you want to
play guitar1 becus it  sound  like the song and most pepole can not tell the differints

Guitar-1 parts

Intro
E|------------------||
B|-9-9-9-9-12--7--9-||
G|-9-9-9-9-12--7--9-||
D|-7-7-7-7-10--5--7-||
A|------------------||
E|------------------||

  Pre Verse
E|-----------------------------------------||
B|o---------------------------------------o||
G|--9--9--9----9-10--9--9--9---------------||
D|--9--9--9----9-10--9--9--9---------------||
A|o-7--7--7----7-8---7--7--7--5h7p5h7p5-7-o||
E|---------------------------7---------7---||

  Verse
E|---------------------------------------------||
B|---------------------------------------------||
G|-9--9--9--9-12--9--9--9--9-14--9--9--9--9-15-||
D|-9--9--9--9-12--9--9--9--9-14--9--9--9--9-15-||
A|-7--7--7--7-10--7--7--7--7-12--7--7--7--7-13-||
E|---------------------------------------------||

E|--------------------------||
B|-7--9--9-9-9-9-12--7--9---||
G|-7--9--9-9-9-9-12--7--9---||
D|-5--7--7-7-7-7-10--5--7---||
A|--------------------------||
E|--------------------------||
  Chrous
E|-3--3----2---0----2---0--2--0--2-0-||
B|-6--5-----0--0-----0--0--2--2--2-2-||
G|-5--5------0-0------0-0--2--2--0-0-||
D|-5--5---2----2---2----2--2--2--2-2-||
A|-3--3--2-----2--2-----2--0--0--1-1-||
E|------0------0-0------0------------||

E|------------7-8-7---------------------||
B|------------7-8-7---------------------||
G|-4-5-4-5-4-5-------9-9-9-9-12--7--9---||
D|-4-5-4-5-4-5-------9-9-9-9-12--7--9---||
A|-------------------7-7-7-7-10--5--7---||
E|--------------------------------------||
 Solo part1
E|--------------------------------------------||
B|---7------------7---------------------------||
G|--7-9--12-9-11---9--12-11-7-----------------||
D|-7------------------------------------------||
A|--------------------------------------------||
E|---------------------------0-2-3-5-7-8-9-10-||
 Solo part2
E|------------------5-3---5-3--3-2-3-2-3-2-||
B|---7----------7-5----7-5-----------------||
G|--7-9--12-9-11---------------------------||
D|-7---------------------------------------||
A|-----------------------------------------||
E|-----------------------------------------||
  Outro
E|-------------------------||
B|-------------------------||
G|-999---4---5----5--------||
D|-999---4---5----5--5---7-||
A|-777---2---3----3--5---7-||
E|-------------------3---5-||

Theris 2guitars in this song but I havet satdown to get the 2nd guitar
players parte but it's allmost the same but he dose all the bakgrand
sols in the song. I will set down a get the 2nd guita's part
  development and support by
dmitry ivanov