rock
 
|tablatures   |lyrics   |discussion forums   |more tabs @ XGuitar.com

Alice_cooper tabs

Teenage Frankenstein guitar tab

Teenage Frankenstein
Alice Cooper from the album « constrictor » and from the
movie « friday the 13th  part 6, Jason lives »
Transcripted by Eric Neveu (ericn@jonction.net)

Intro
GUITAR 1

E----------------------------------------------------
B----------------------------------------------------
G----------------------------------------------------
D----------------------------------------------------
A----0---10---12----10----12----10---12---0---10---12  REPEAT TILL RIFF A
E----------------------------------------------------

GUITAR 2

E---15 FULL-----------------------------------------------------------
B--------------------------------12 FULL----13 TREMOLO----------------
G---------------------------------------------------------------------
D------------------------------------------------------------0 TREMOLO
A---------------------------------------------------------------------
E---------------0 TREMOLO---------------------------------------------

RIFF A

E-------------------------------------------
B-------------------------------------------
G-------------------------------------------   REPEAT TILL THE FIRST WORD.
D---------------5--7-------7--7--7--6-------
A---7--7--7--7--3--5-------5--0--5--4----7--
E---5--5--0--5---------------------------5--

I'M THE KID ON THE BLOCK WITH MY HEAD MADE OF ROCK
I'M THE STATE OF THE ART GOT A BRAIN A LA CARTE

DO P.M DURING............................................

E---------------------------------------------------------
B---------------------------------------------------------
G---------------------------------------------------------
D---------------------------------------------------------
A--7--7--7--7--7--7--7--7--7--7--7--7--7--7--7---7--7--7--  WITH PALM MUTE
E--5--5--5--5--5--5--5--5--5--5--5--5--5--5--5---5--5--5--

AND I AIN'T GOT NOBODY
I MAKE THE BABIES CRY

E---------------------------------
B---------------------------------
G---------------------------------
D---------------------------------
A----7---5--------10----7---------
E----5---3--------8-----5---------

I AIN'T ONE OF THE CROWD  I AIN'T ONE OF THE GUYS


   WITH P.M......................................

E-----------------------------------------------------------
B-----------------------------------------------------------
G----------------------------------------------------5------ (THESE 2 NOTES ARE
D--7--7--7--7--7--7--7--7--7--7--7--7--7--7--7--7--------7--  FROM KEYBOARD)
A--5--5--5--5--5--5--5--5--5--5--5--5--5--5--5--5-----------
E-----------------------------------------------------------


ARE MY COLOR TOO BRIGHT  ARE MY EYES SET TO WIDE     (WITH LAST RIFF)



I SPEND MY LIFE BURNING TURNING.........


E----------------------------
B----------------------------
G----------------------------
D----------------------------
A------5-------7----5-------2
E------3-------5----3-------0

I'M A TEENAGE FRANKENSTEIN ( WITH RIFF A)

THE LOCAL FREAK WITH THE TWISTED MIND
THESE AIN'T MY HANDS AND THE LEGS AIN'T MINE

E-------------------------------------------
B-------------------------------------------
G--------7----9-----------------------------
D--------5----7-------------7------9--------
A---------------------------5------7--------
E-------------------------------------------


BEFORE THE SOLO

E------------------------------------
B------------------------------------
G------------------------------------
D------------------------------------
A------0--0--0--2-----0---0--0--5---3
E------------------------------------


IF YOU HAVE A REQUEST JUST SEND ME AN E-MAIL. I'M GONNA TRY MY BEST.

                           ERIC KANE YEARS ! ! ! ! ! ! ! ! ! !



  development and support by
dmitry ivanov