rock
 
|tablatures   |lyrics   |discussion forums   |more tabs @ XGuitar.com

Alice_cooper tabs

Steven guitar chords

STEVEN

Chords transcribed by Jeff Gower (jgower@gator.net).


Am E7 Am E7
Am Dm Dm/C
G7/B G7 C C/B
F Esus4 E7
F E E+

Am E7 Am E7
Am Dm Dm/C
G7/B G7 C C/B
F Esus4 E7
F E E+

CHORUS:

Am(add f) - Am Dm Em F G-F-G Am
Am(add f) - Am Dm Em F G-F-G Am
Am(add f) - Am Dm Em F G-F-G Am
Am(add f) - Am Dm Em F G-F-G Am

Am E7sus4 E7 Am
E7sus4 E7
Am Dm Dm/C
G7/B G7 C C/B
F E7sus4 E7
F E E+ Am (to chorus)

Repeat chorus

INSTRUMENTAL BREAK:
Am - E7 - Am - E7 - Am - Dm - G - C - F - Esus4, E7 - Fb5, F - Esus4,
E7 - Am - E/A - Am - E/A - Am - E/A - Am - E7 - Am - Dm - G - C -
F - Esus4, E7 - Fb5, F - Esus4, E7



  (I added this little bit, B.G.)
   Approx. 2:07 in
E-|----------------------------------|----------------------|---------------|
B-|----------------------------------|----------------------|---------------|
G-|----------------------------------|----------------------|---------------|
D-|----------------------------------|----------------2-----|---------------|
A-|----------------------------------|----------2--3-----5--|--3--2---------|
E-|--0--5----5\--0----0--5----5\--0--|--0--5----------------|--------5--3---|


E-|--------------|--------------|--------------------|----------------------|
B-|--------------|--------------|--------------------|----------------------|
G-|--------------|--------------|--------------------|----------------------|
D-|--------------|--------------|--------------------|----------------------|
A-|-----2--5--3--|--2-----------|--------3--2--(2)/--|----------------------|
E-|--5-----------|-----5--3--1--|--3--5--------------|--0---(1)---(0)---(5)-|

  development and support by
dmitry ivanov