rock
 
|tablatures   |lyrics   |discussion forums   |more tabs @ XGuitar.com

Alice_cooper tabs

Sick Things bass tab

 "Sick Things" by Alice Cooper
  Words and music by Bob Ezrin, Alice Cooper, and Michael Bruce

  From the album Billion Dollar Babies (1973)

  Transcription by Brian Gaddis


  /= slide up


    "Sick   things   in   cars   rotate  'round   my   stars.   Sick   things,"
G-|---------------------------------------------------------------------------|
D-|---------------------------------------------------------------------------|
A-|------------------1----3-----------------------1----3----------------------|
E-|--1------3--------------------1---3--------------------------1------3------|


    "my   things,   my    pets.    My   things.             "I    love   you
G-|---------------------------------------------------------------------------|
D-|---------------------------------------------------------------------------|
A-|--1----3------------------------1----3----3/5--3--3/5--3--1-----------1----|
E-|-----------------1----3----------------------------------------3-----------|


     "things   I   seek   as   much   as   you   love   me.   You  things  are
G-|---------------------------------------------------------------------------|
D-|---------------------------------------------------------------------------|
A-|---------------------------------------------------------------------------|
E-|--1-1-1-1-1-1-1-1-1---------------------3-3-3-3-3-3-3-3-3------------------|


    "Heavenly         when   you   come   worship   me.     You   things   are
G-|---------------------------------------------------------------------------|
D-|---------------------------------------------------------------------------|
A-|---------------------------------------------------------------------------|
E-|--1-1-1-1-1-1-1-1-1--------------------3-3-3-3-3-3-3-3-3-------------------|


    "chilled   with   fright   for   I   am   out     tonight.   You   fill
G-|---------------------------------------------------------------------------|
D-|---------------------------------------------------------------------------|
A-|---------------------------------------------------------------------------|
E-|--1-1-1-1-1-1-1-1-1------------------------3-3-3-3-3-3-3-3-3---------------|


     "me with delight,   you   whet   my   a------------a-----petite."
G-|---------------------------------------------------------------------------|
D-|---------------------------------------------------------------------------|
A-|---------------------------------------------------------------------------|
E-|--1-1-1-1-1-1-1-1-1----------/----------5------------------1---3-----------|


    "I eat        my  things.      What love       it brings.       Come here,
G-|---------------------------------------------------------------------------|
D-|---------------------------------------------------------------------------|
A-|--------1---3-----------------------------1---3----------------------------|
E-|--------------------------1---3----------------------------1---3-----------|


          "my things.     Don't fear, my little things.              I  love
G-|---------------------------------------------------------------------------|
D-|---------------------------------------------------------------------------|
A-|--1---3-------------------------------1------3---3/5--3--3/5--3---1--------|
E-|---------------------1----3-------------------------------------------3----|


     "you  things   I   seek  as  much  as   you    love   me. You things are
G-|---------------------------------------------------------------------------|
D-|---------------------------------------------------------------------------|
A-|--1------------------------------------------------------------------------|
E-|--------1-1-1-1-1-1-1-1-1-----------------3-3-3-3-3-3-3-3-3----------------|


     "Heavenly          when   you   come   worship      me.   You things are
G-|---------------------------------------------------------------------------|
D-|------------------------------------------------------5-5------------------|
A-|---------------------------------------------------------------------------|
E-|---1-1-1-1-1-1-1-1-1---------------------3-3-3-3-3-3-----------------------|


     "thrilled  with fright   for   I   am   out       tonight. You things are
G-|---------------------------------------------------------------------------|
D-|---------------------------------------------------------------------------|
A-|---------------------------------------------------------------------------|
E-|--1-1-1-1-1-1-1-1-1-----------------------3-3-3-3-3-3-3-3-3----------------|


     "paradise.             You   whet   my   a-------a-------petite."
G-|---------------------------------------------------------------------------|
D-|---------------------------------------------------------------------------|
A-|---------------------------------------------------------------------------|
E-|--1-1-1-1-1-1-1-1-1------------1----/------5----------------1--3-----------|


G-|---------------------------------------------------------------------------|
D-|---------------------------------------------------------------------------|
A-|--1--3----------1--3----------1--3----------1--3---3/5---3---3/5---3--1----|
E-|---------1--3----------1--3----------1--3----------------------------------|

     "Sick   things      in     car-----tridge   tapes,     my     stars."
G-|---------------------------------------------------------------------------|
D-|---------------------------------------------------------------------------|
A-|----------------------1------3---------------------------1------3----------|
E-|--1-------3--------------------------1--------3----------------------------|

     "Sick  things,  pretty things, play  things,  my things."
G-|---------------------------------------------------------------------------|
D-|---------------------------------------------------------------------------|
A-|------------------1-----3-----------------------1----3--3/5--3--3/5--3-----|
E-|---1-----3-----------------------1-----3-----------------------------------|

     "I  love the things  I  seek  as much as  they   love   me.   You things
G-|---------------------------------------------------------------------------|
D-|---------------------------------------------------------------------------|
A-|---1-----------------------------------------------------------------------|
E-|------3----1---1-1-1-1-1-1-1-1--1--1----1---3-3-3-3-3-3-3-3-3--------------|

     "are Heavenly            when you come worship        me. You things are
G-|---------------------------------------------------------------------------|
D-|---------------------------------------------------------------------------|
A-|---------------------------------------------------------------------------|
E-|-------1-1-1-1-1-1-1-1-1-----------------3-3-3-3-3-3-3-3-3-----------------|

     "chilled  with   fright  for I  am  out      tonight.   You things are
G-|---------------------------------------------------------------------------|
D-|---------------------------------------------------------------------------|
A-|---------------------------------------------------------------------------|
E-|---1--1--1--1--1--1--1--1--1---1------3-3-3-3-3-3-3-3-3--------------------|

    "paradise.         You  whet  my a----a----petite.
G-|---------------------------------------------------------------------------|
D-|---------------------------------------------------------------------------|
A-|------------------------------------------------------1--3-----------------|
E-|--1-1-1-1-1-1-1-1--------1----/---5---------1--3---------------------------|

                                            (Keep picking last note till end.)
G-|---------------------------------------------------------------------------|
D-|---------------------------------------------------------------------------|
A-|---------1--3----------1--3----------1--3--3/5--3--3/5--3--1---------------|
E-|--1--3----------1--3----------1--3----------------------------1--3---------|
  development and support by
dmitry ivanov