rock
 
|tablatures   |lyrics   |discussion forums   |more tabs @ XGuitar.com

Alice_cooper tabs

Shockdance guitar tab

« SHOCKDANCE » BY ALICE COOPER
WORDS AND MUSIC BY  DESMOND CHILD, VIVIAN CAMPBELL AND KANE ROBERTS
FROM THE ALBUM « SHOCKER  THE MUSIC »
TABS TRANSCRIBED BY ERIC NEVEU  (ericn@jonction.net)

intro  (RIFF A)

E---0--0--7--0---9--0--7--8---12--------0--0--7--9--0--7-/--11---  REPEAT
B----------------------------------------------------------------


(RIFF B)
DO SOME HARMONIC FOR THE 5, 4, 3, 2
G--2----------------------------------------
D--2---------------------5--0--4--0--3--2---
A--0---0--0--3--0--0------------------------
E-------------------------------------------


(RIFF C)

G---2-------------------------------------------
D---2----------------------5--0--4--0--3--------
A---0---0--0--3--0--0---------------------------
E-----------------------------------------------


HE DRAGS HIS FOOT AND HE CLUTCHES HIS KNIFE
AS THE PEOPLE IN THE CITY WAIT IN FEAR FOR THEIR LIFE
HE'S A MANIAC HEART ATTACK WIRED TO KILL
A COLD BLOODED LUNATIC HUNGRY FOR A THRILL

(FIRST GUITAR DO RIFF A, AND SECOND GUITAR DO RIFF B)


CHORUS

IN THE NAME OF THE FATHER, IN THE NAME OF THE SON,
THIS UNHOLY GHOST HAS ONLY......

G--2------------------------------4--------------------------------
D--2------------------------------4--------------------------------
A--0-0-0-0-0-0-0-0-0-0-0-0-0-0-0--2--2--2-2-2--2-2-2-2-2-2--2-2-2--
E------------------------------------------------------------------

G--7----------------------------------
D--7----------------------------------
A--5--5-5-5-5-5-5-5-5-5-5--5-5-5-5----
E-------------------------------------
REPEAT


SHOCKDANCE  HEY !                SHOCKDANCE     HEY !

(RIFF A)           (RIFF B)       (RIFF A)           (RIFF B)


DURING THE SOLO DO RIFF A

  development and support by
dmitry ivanov