rock
 
|tablatures   |lyrics   |discussion forums   |more tabs @ XGuitar.com

Alice_cooper tabs

Im The Coolest guitar tab

Intro:

7-------------------|6-------------------|5-------------------|--------------------|
9-------------------|8-------------------|7-------------------|--------------------|
7-------------------|7-------------------|5-------------------|--------------------|
----------0-------0-|-----------0---------|--------------------|--------------------|
--------------------|---------------------|----------0-------0-|-----------0--------|
0------0-----0------|0--0----0-----------|0------0-----0------|0--0----0-----------|
 you know that I'm the cool

||:7-------------------|--------------------|5-------------------|--------------------|
||:9-------------------|--------------------|7-------------------|--------------------|
||:7-------------------|--------------------|5-------------------|--------------------|
||:----------0-------0-|-----------0--------|--------------------|--------------------|
||:--------------------|--------------------|----------0-------0-|-----------0--------|
||:0------0-----0------|0--0----0-----------|0------0-----0------|0--0----0-----------|
       est              that's ever come aound             you'll notice things get hot
       est              I'm Mister Number One                 My Home town built a stat
      born     there were these four dudes up on a hill             and they saw a star

7-------------------|6-------------------|5-------------------|--------------------|
9-------------------|8-------------------|7-------------------|--------------------|
7-------------------|7-------------------|5-------------------|--------------------|
----------0-------0-|-----------0---------|--------------------|--------------------|
--------------------|---------------------|----------0-------0-|-----------0--------|
0------0-----0------|0--0----0-----------|0------0-----0------|0--0----0-----------|
  ter               when ever I'm in town                      I mean I gotta be the
  ue               to their fav'rite son                       I mean I gotta be the
 hangin' out over town and the whole world seemed to stand still It made the Sunday pa

@
10------------------|--------------------|7-------------------|--------------------|
12------------------|--------------------|9-------------------|--------------------|
10------------------|--------------------|7-------------------|--------------------|
----------0-------0-|-----------0---------|--------------------|--------------------|
--------------------|---------------------|----------0-------0-|-----------0--------|
0------0-----0------|0--0----0-----------|0------0-----0------|0--0----0-----------|
 coolest                who else could it  be                 ev'ry body knows who's
 greatest             I'm just a ball of  fun              I mean I'm definitely the
baby                  come over here a minute                     who's     the cool
  ers                I guess it proves for sure                             I am the

5------6------7-----|--------------------|5------6------7-----|------------------:||
5------6------7-----|--------------------|5------6------7-----|------------------:||
5------6------7-----|--------------------|5------6------7-----|------------------:||
3------4------5-----|--------------------|3------4------5-----|------------------:||
--------------------|---------------------|--------------------|------------------:||
 really cool                    Me                       Let's face it I'm the great
greatest              I'm also the coolest
  est               I mean how do I   look?
coolest             I am the  greatest                 ( to $)

2,3__________________
--------------1-----|0--------0-----------|0----------1--------|0--------0---------|
--------------3-----|2--------2-----------|2----------3--------|2--------2---------|
--------------3-----|2--------2-----------|2----------3--------|2--------2---------|
--------------3-----|2--------2-----------|2----------3--------|2--------2---------|
--------------1-----|0--------0-----------|0----------1--------|0--------0---------|
--------------------|---------------------|--------------------|-------------------|
                     { You can't leave a   package like me      sitting on no
 yeah                {

0----------2--------|7-------------------|--------------------|---8-------8-------|
2----------4--------|6-------------------|--------------------|---8-------8-------|
2----------2--------|7-------------------|--------------------|---6-------6-------|
2----------4--------|5-------------------|5--------5----------|5-------5-------5--|
0----------2--------|--------------------|--------------------|-------------------|
--------------------|---------------------|--------------------|-------------------|
shelf Let me tell you I'm so cool    sonny        I'm gonna    save a little for my

                                    1x to @
5-------------------|
6---6---------------|
6-------6-----------|
5-----------7----5--|
--------------------|
--------------------|
self             Hey
self You know the day I was  (To Verse)

||:--------------------|5------6------7-----|--------------------|5------6------7-----:||
||:--------------------|5------6------7-----|--------------------|5------6------7-----:||
||:--------------------|5------6------7-----|--------------------|5------6------7-----:||
||:--------------------|3------4------5-----|--------------------|3------4------5-----:||
||:--------------------|--------------------|--------------------|--------------------:||
         I am the       baddest                  I am the         smoothest
         I am the         best                sand dancers come on
         Ah               yeah
 4._____________________
-----------------------|
-----------------------|
-----------------------|
-----------------------|
-----------------------|
-----------------------|
                Right
  development and support by
dmitry ivanov