rock
 
|tablatures   |lyrics   |discussion forums   |more tabs @ XGuitar.com

Alice_cooper tabs

Hurricane Years guitar tab

from - François Simard  

Hurricane years
Alice Cooper  -- Hey Stoopid (tuned down  1/2 steps in Eb)


Figure:1 intro

------------------------------------------------------------------------------
-sl 15--15---13--------13----15----sl 15--15---13-------13--------------------
-----------------15--------------------------------15-------12----------------
------------------------------------------------------------------------------
------------------------------------------------------------------------------
------------------------------------------------------------------------------


------------------------------------------------------------------------------
--sl 15--15--13---------13---15--------sl--15--15---13----------13----15^^^^AH
---------------------15-----------------------------------15------------------
------------------------------------------------------------------------------
------------------------------------------------------------------------------
------------------------------------------------------------------------------


Riff 1 + intro riff

---------------------------------------|--------------------------------------
---------------------------------------|--------------------------------------
---------------3-5-------5^^---3-------|-----3--5-----------------------------
--5-5-5-5------3-5-------5^^---3-------|-----3--5-----5-----------------------
--5-5-5-5------------------------------|--------------5-----------------------
---------------------------------------|--------------3-----------------------

I'am hanging on .......
------------------------------------------------------------------------------
------------------------------------------------------------------------------
------------------------------------------------------------------------------
----3-3-3-3-3-3---5555555-----------------------------------333333----555555--
----1-1-1-1-1-1---3333333----7777777-----555555-------------111111----333333--
-----------------------------5555555-----333333---0--3--0---------------------

                                           Oh no   lighning......
--------------------------------------|---------------------------------------
--------------------------------------|---------------------------------------
-------3--3-------3-3--------3--3-----|------------------5----3---------------
-------3--3-------3-3--------3--3-----|----3--5--3--5----5----3----5----------
--5-----------5----------5------------|----3--5--3--5--------------5----------
--------------------------------------|---------------------------------------

I've been through.......  (play all this new section 2 fret higher)
Example:
-------------------------------------------|----------------------------------
-------------------------------------------|----------------------------------
-------------5---7-----7^^^^-----------5---|----5----7------------------------
----77777----5---7-----7^^^^-----------5---|----5----7------7-----------------
----77777----------------------------------|----------------7-----------------
-------------------------------------------|----------------5-----------------


------------------------------------------------------------------------------
------------------------------------------------------------------------------
------------------------------------------------------------------------------
--55555---77777--------------------------55555----77777-----------------------
--33333---55555--99999----77777----------33333----55555-----------------------
-----------------77777----55555-3-5-3-----------------------------------------

                                           oh no ........
--------------------------------------|---------------------------------------
--------------------------------------|---------------------------------------
-------5--5--------5--5--------5--5---|----------------------7-----5----------
-------5--5--------5--5--------5--5---|----5---7--5--7-------7-----5----7-----
--7------------7-----------7----------|----5---7--5--7------------------7-----
--------------------------------------|---------------------------------------
  development and support by
dmitry ivanov