rock
 
|tablatures   |lyrics   |discussion forums   |more tabs @ XGuitar.com

Alice_cooper tabs

Gimme guitar tab

tune like this
eB---
Bb---
Gb---
Db---
Ab---
Db---


intro:

------------|---------------------------------------
------------|---------------------------------------
------------|---------------------------------------
------------|---------------------------------------
---4-0-4----|-0-0--0-0--0-0-0-0-4-3-----------------
---4-0-4----|-0-0--0-0--0-0-0-0-4-3-----------------

I know all your desires...

---------------------------------------------------
---------------------------------------------------
---------------------------------------------------
---5-4-3--------------5-4-3------------------------
---------0-0-0--0-0-0-------0-0-0--0-0-00----------
---------0-0-0--0-0-0-------0-0-0--0-0-00----------

gimme this gimme that
--------------------------------------
--------------------------------------
--------------------------------------
--------------------------------------
-0-0--0-0--0-0-0-0-4-3----------------
-0-0--0-0--0-0-0-0-4-3----------------

I'm on your side   sincerely
---------------------------------------------------
---------------------------------------------------
---------------------------------------------------
---------------------------------------------------
------------3-3-3-3-3-5-5-5-5-5-7-6-5--33-5-6-7-6-5
------------3-3-3-3-3-5-5-5-5-5-7-6-5--33-5-6-7-6-5
                               |-first time only--|

Don't     you      wish you had it all
--------------------------------------------------------------
--------------------------------------------------------------
--------------------------------------------------------------
--------------------------------------------------------------
-0-0-0-0--8-8-X-X--5-5-X-X-------7-7--100/12--7-8-7-8-7-8-7-8-
-0-0-0-0--8-8-X-X--5-5-X-X-------7-7--100/12--7-8-7-8-7-8-7-8-
					    |fourth time only|

Break
---------------------------------------------------------
---------------------------------------------------------
-------------------------------------------7~------------
---------------------------------------------------------
-------------------4-3-----------------------------------
-0-0--0-0--0-0-0-0-4-3--0-0--0-0--0-0-0--0---------------
  development and support by
dmitry ivanov