rock
 
|tablatures   |lyrics   |discussion forums   |more tabs @ XGuitar.com

Alice_cooper tabs

Fire guitar tab

FIRE

FROM THE ALBUM CLASSICKS FROM ALICE COOPER
TRANSCRIBED BY ERIC NEVEU (eric@jonction.net)


INTRO

a---11---10---8/10---------------11---10---8/10----------------10--12--12--
e-------------------10--10-----------------------10--10-----12-----------


alright!


       e---------------
       b------13-------
       g------12-------


THIS PART IS PLAYED ALL THE TIME:  A-------10--12--12
                                   E----12-----------


LET ME STAND NEXT TO YOUR FIRE!

                                     D--------10--10--10----12-12----
                                     A-----12------------14--------14
                                     E-------------------------------



CHORUS: LET ME STAND NEXT TO YOUR FIRE (REPEAT)

LET RING: D(add9)               C(add9)


d-----10----12------12--12
a---------------14--------
e-------------------------



BRIDGE

AH MOVER ROVER....   LET ALICE TAKE OVER  YEAH, YOU KNOW...  YEAH!

a----12---------------10-----------------------7-------------10---
e----10----------------8-----------------------5--------------8---


SOLO

E---15--15--15-----------15--15--15--12----------15--15--15-------
B---------------12-----------------------14------------------14---
G-----------------------------------------------------------------


E-------15--15----------------
B---14----------14--14--12----
G-----------------------------


  development and support by
dmitry ivanov