rock
 
|tablatures   |lyrics   |discussion forums   |more tabs @ XGuitar.com

Alice_cooper tabs

Fantasy Man guitar tab

Intro (0:00-0:15)
E-|--------------------|-----------------|--------------|
B-|--------------------|-----------------|--------------|
G-|--------------------|-----------------|--------------|
D-|--2--2--2--2--2--2--|--2--2--2--2--2--|--2--2--2-----|
A-|--2--2--2--2--2--2--|--2--2--2--2--2--|--2--2--2-----|
E-|--0--0--3--4--3--0--|--0--3--4--3--0--|--4--3--0-----|

E-|--------------------|-----------------|--------------|
B-|--------------------|-----------------|--------------|
G-|--------------------|-----------------|--------------|
D-|--2--2--2--2--2--2--|--2--2--2--2--2--|--2--2--2-----|
A-|--2--2--2--2--2--2--|--2--2--2--2--2--|--2--2--2-----|
E-|--0--0--3--4--3--0--|--0--3--4--3--0--|--4--3--0-----|

E-|--------------------|-----------------|--------------|
B-|--------------------|-----------------|--------------|
G-|--------------------|-----------------|--------------|
D-|--2--2--2--2--2--2--|--2--2--2--2--2--|--2--2--2-----|
A-|--2--2--2--2--2--2--|--2--2--2--2--2--|--2--2--2-----|
E-|--0--0--3--4--3--0--|--0--3--4--3--0--|--4--3--0-----|

E-|--------------------|-----------------|
B-|--------------------|-----------------|
G-|--------------------|-----------------|
D-|--2--2--2--2--2--2--|--2--2--2--2--2--|
A-|--2--2--2--2--2--2--|--2--2--2--2--2--|
E-|--0--0--3--4--3--0--|--0--3--4--3--0--|

Verse (Palm Mute) (0:17-0:31)
E-|-----------------------------------------------|
B-|-----------------------------------------------|
G-|-----------------------------------------------|
D-|-----------------------------------------------|
A-|-4-4-4-4-4-4-4-4-4-4-4-4-4-4-4-4-4-4-4-4-4-4-4-|
E-|-2-2-2-2-2-2-2-2-2-2-2-2-2-2-2-2-2-2-2-2-2-2-2-|
I don't drink tea. Or white chablis. I sit around and watch TV.

E-|-----------------------------------------------|
B-|-----------------------------------------------|
G-|-----------------------------------------------|
D-|-----------------------------------------------|
A-|-4-4-4-4-4-4-4-4-4-4-4-4-4-4-4-4-4-4-4-4-4-4-4-|
E-|-2-2-2-2-2-2-2-2-2-2-2-2-2-2-2-2-2-2-2-2-2-2-2-|
Don't send flowers or take showers. But I'll be there to pull your weeds.

(0:32-0:41)
E-|--------------------|-----------------|--------------|
B-|--------------------|-----------------|--------------|
G-|--------------------|-----------------|--------------|
D-|--2--2--2--2--2--2--|--2--2--2--2--2--|--2--2--2-----|
A-|--2--2--2--2--2--2--|--2--2--2--2--2--|--2--2--2-----|
E-|--0--0--3--4--3--0--|--0--3--4--3--0--|--4--3--0-----|
					    Oh Yeah!

E-|--------------------|-----------------|--------------|
B-|--------------------|-----------------|--------------|
G-|--------------------|-----------------|--------------|
D-|--2--2--2--2--2--2--|--2--2--2--2--2--|--2--2--2-----|
A-|--2--2--2--2--2--2--|--2--2--2--2--2--|--2--2--2-----|
E-|--0--0--3--4--3--0--|--0--3--4--3--0--|--4--3--0-----|

Verse (Palm Mute) (0:41-0:56)
E-|-----------------------------------------------|
B-|-----------------------------------------------|
G-|-----------------------------------------------|
D-|-----------------------------------------------|
A-|-4-4-4-4-4-4-4-4-4-4-4-4-4-4-4-4-4-4-4-4-4-4-4-|
E-|-2-2-2-2-2-2-2-2-2-2-2-2-2-2-2-2-2-2-2-2-2-2-2-|
I don't read books. I don't french cook. Or stroll around in galleries.

E-|-----------------------------------------------|
B-|-----------------------------------------------|
G-|-----------------------------------------------|
D-|-----------------------------------------------|
A-|-4-4-4-4-4-4-4-4-4-4-4-4-4-4-4-4-4-4-4-4-4-4-4-|
E-|-2-2-2-2-2-2-2-2-2-2-2-2-2-2-2-2-2-2-2-2-2-2-2-|
I hate opera. I hate oprah. Don't fill my head with poetry.

Chorus is untranscribed as of yet.

(1:29-1:36)
E-|--------------------|-----------------|--------------|
B-|--------------------|-----------------|--------------|
G-|--------------------|-----------------|--------------|
D-|--2--2--2--2--2--2--|--2--2--2--2--2--|--2--2--2-----|
A-|--2--2--2--2--2--2--|--2--2--2--2--2--|--2--2--2-----|
E-|--0--0--3--4--3--0--|--0--3--4--3--0--|--4--3--0-----|

E-|--------------------|-----------------|--------------|
B-|--------------------|-----------------|--------------|
G-|--------------------|-----------------|--------------|
D-|--2--2--2--2--2--2--|--2--2--2--2--2--|--2--2--2-----|
A-|--2--2--2--2--2--2--|--2--2--2--2--2--|--2--2--2-----|
E-|--0--0--3--4--3--0--|--0--3--4--3--0--|--4--3--0-----|

Verse (1:37-1:52)
E-|-----------------------------------------------|
B-|-----------------------------------------------|
G-|-----------------------------------------------|
D-|-----------------------------------------------|
A-|-4-4-4-4-4-4-4-4-4-4-4-4-4-4-4-4-4-4-4-4-4-4-4-|
E-|-2-2-2-2-2-2-2-2-2-2-2-2-2-2-2-2-2-2-2-2-2-2-2-|
I don't do dishes and I'm suspicious of any grown up man that does.

E-|-----------------------------------------------|
B-|-----------------------------------------------|
G-|-----------------------------------------------|
D-|-----------------------------------------------|
A-|-4-4-4-4-4-4-4-4-4-4-4-4-4-4-4-4-4-4-4-4-4-4-4-|
E-|-2-2-2-2-2-2-2-2-2-2-2-2-2-2-2-2-2-2-2-2-2-2-2-|
I'm homophobic, don't do aerobics. Just lay around and catch a buzz.
  development and support by
dmitry ivanov