rock
 
|tablatures   |lyrics   |discussion forums   |more tabs @ XGuitar.com

Alice_cooper tabs

Dirty Dreams guitar tab

from - François Simard  

Dirty Dreams
Alice Cooper  -- Hey Stoopid  (tuned down  1 1/2 steps)

Put  PM on the open chord


intro.
----------------------------------------------------------------------------
--8-8-8--------------------------8-8-8--------------------------------------
--7-7-7-----7--7--7--7--7-7------7-7-7--7-7-7-7-7-7-------------------------
--5-5-5-----7--7--7--7--7-7------5-5-5--7-7-7-7-7-7-------------------------
------------5--5--5--5--5-5-------------5-5-5-5-5-5-------------------------
----------------------------------------------------------------------------


----------------------------------------------------------------------------
-10-10--10----------------------101010--------------------------------------
-9---9---9---9--9--9-9--9--9----9-9--9----9-9-9-9-9-9-----------------------
-7---7---7---9--9--9-9--9--9----7-7--7----9-9-9-9-9-9-----------------------
-------------7--7--7-7--7--7--------------7-7-7-7-7-7-----------------------
----------------------------------------------------------------------------


figure: 1
----------------------------------------------------------------------------
----------------------------------------------------------------------------
----------------------------------------------------------------------------
-------------4--6--4-----------------------------------4-4--6--4------------
-2---4-2-----2--2--2------2-------4-------5-5-4--------2-2--2--2------------
-0---0-0--------------------0---0-----0-------------0-----------------------


(that's one of the songs that i know from alice, if you some others ask
me for it at a..simard@sympatico.ca

  development and support by
dmitry ivanov