rock
 
|tablatures   |lyrics   |discussion forums   |more tabs @ XGuitar.com

Alice_cooper tabs

Dangerous Tonight guitar tab

from - François Simard  

Dangerous Tonight
Alice Cooper  -- Hey Stoopid


intro:
------------------------------------------------------------------------------
------------------------------------------------------------------------------
------------------------------------------------------------------------------
------------------------------------------------------------------------------
------4^------3^^---4----------4------3^^---4--------1--1----4---1--3^^---4---
-2-2------2---------------2-2------2------------------------------------------


------------------------------------------------------------------------------
------------------------------------------------------------------------------
----------------------3-------------------------------------------------------
----------------------3-------------------------------------------------------
--1-1--4--1--3^^--4---1-------------------------------------------------------
------------------------------------------------------------------------------


------------------------------------------------------------------------------
------------------------------------------------------------------------------
--15-bend---------------------------------------------------------------------
------------------------------------------------------------------------------
-------------111--11111--111--11111--111--111------111--11111-----------------
----------------------------------------------4-4-----------------------------


figure:1  Take an another...
------------------------------------------------------------------------------
---------------------------------------------AH-------------------------------
---------------------------------------3-----10-^^^^--------------------------
---------------------------------------3--------------------------------------
-111--11111--111--11111----------------1--------------------------------------
-------------------------444--44444-------------------------------------------


Figure: 2 Take another...                         second time*
------------------------------------------------|-----------------------------
------------------------------------------------|-----------------------------
------------------------------------------------|-----------------------------
--4---6--8--6--4--6------8----------------------|------8--------8-------8-----
--4---6--8--6--4--6------8----------------------|------8--------8-------8-----
--2---4--6--4--2--4------6----XXX(pick slide)---|--66------66-------66--------


Figure: 3 If you let...                                           second time
------------------------------------------------------------------12-12-12-12-
------------------------------------AH----------------------------15^15^15^15^
------------------------------------10^^^^------------------------------------
-4--6---8--10---8------8-----8------------------4---6---8---10-----888888-----
-4--6---8--10---8------8-----8------------------4---6---8---10-----888888-----
-2--4---6--8----6--66----66-----66--------------2---4---6----8-----666666-----


Figure: 4    I'am dangerous...
------------------------------------------------------------------------------
------------------------------------------------------------------------------
------------------------------------------------------------------------------
---4--6---4---8---6---4---6-------8--------8------8--4---6---3---8--6---4---6-
---4--6---4---8---6---4---6-------8--------8------8--4---6---3---8--6---4---6-
---2--4---2---6---4---2---4---66-----66------66------2---4---1---6--4---2---4-

Go to intro.*


(that's one of the songs that i know from alice, if you some others ask
me for it at a..simard@sympatico.ca
  development and support by
dmitry ivanov