rock
 
|tablatures   |lyrics   |discussion forums   |more tabs @ XGuitar.com

Alice_cooper tabs

Clones (We're All ) guitar tab

Title: Clones (We're All )
Artist: Alice cooper
Album: Flush  the Fashion

Instrument: Guitar

Tabbed by: Jhon5

Tuning: Standard (E A D G B E)

I use A Digital Delay & Flanger from  Boss and A Tremolo FX from my amp
The setting for the DD6 is E-level is 3o clock F-back at 10o clock
D-time 9 o clock  Mode is set at 800ms & the setting for
the Bf2 is Manual 3o clock Depth 9o clock Rate 12o clock Res 3o clock
If you use a differnt pedals it might be a differint settings
use Delay & Flanger throw the song

Intro Synthesizer I play this on the Guitar
E|---------------13---------||
B|-------12-13-12--12-13-12-||
G|-12b-12-------------------|| Play 4x
D|--------------------------||
A|--------------------------||
E|--------------------------||

Verse
E|-------|-----------|---|-------|---------|
B|-------|o---------o|---|-------|---------|
G|-------|-----------|-5-|-------|---------|
D|-5-5-x-|--5-5-5-x--|-5-|-2-2-x-|-2-2-2-x-|
A|-5-5-x-|o-5-5-5-x-o|-3-|-2-2-x-|-2-2-2-x-|
E|-3-3-x-|--3-3-3-x--|---|-0-0-x-|-0-0-0-x-|

E|---------||
B|---------||
G|---------||
D|-5-5-5-x-||
A|-5-5-5-x-||
E|-3-3-3-x-||

Chorus                            Synthesizer
E|---------------|---------------|-------------13-----------|
B|---------------|---------------|o---12-13-12----12-13-12-o|
G|-5-5-5-5-5-5-5-|-7-7-7-7-7-7-7-|-12-----------------------|
D|-5-5-5-5-5-5-5-|-7-7-7-7-7-7-7-|--------------------------|
A|-3-3-3-3-3-3-3-|-5-5-5-5-5-5-5-|o------------------------o|
E|---------------|---------------|--------------------------|

E|----------------|----------------|-------|---------||
B|----------------|----------------|-------|---------||
G|-5-5-5-5-5-5-5--|-7-7-7-7-7-7-7--|-------|---------||
D|-5-5-5-5-5-5-5--|-7-7-7-7-7-7-7--|-5-5-x-|-5-5-5-x-||
A|-3-3-3-3-3-3-3--|-5-5-5-5-5-5-5--|-5-5-x-|-5-5-5-x-||
E|----------------|----------------|-3-3-x-|-3-3-3-x-||

Bridge
use Tremolo FX
E|-------------|-----------|-------------------|--------------|
B|-------------|-----------|-------------------|--------------|
G|-9-----9-----|-7-7-7-7-7-|-------------------|--------------|
D|-9-9-9-9-9-9-|-7---7-----|-2-----2-----2-----|-9---9--9---9-|
A|-7-----7-----|-5---5-----|-2-----2-----2-----|-7---7--7---7-|
E|-------------|-----------|-0-0-0-0-0-0-0-0-0-|--------------|

                                Tremolo Fx off
E|---------|---------|---------|--------------------||
B|---------|---------|---------|--------------------||
G|---------|---------|---------|--------------------||
D|-5/7-7-7-|-5/7-7-7-|-5/7-7-7-|-7-7-x--7-7-x-7-7-x-||
A|-3/5-5-5-|-3/5-5-5-|-3/5-5-5-|-5-5-x--5-5-x-5-5-x-||
E|---------|---------|---------|--------------------||

E|---------------13---------||
B|-------12-13-12--12-13-12-||
G|-12b-12-------------------|| Play 4x
D|--------------------------||
A|--------------------------||
E|--------------------------||

E|----------------|----------------|-------|---------||
B|----------------|----------------|-------|---------||
G|-5-5-5-5-5-5-5--|-7-7-7-7-7-7-7--|-------|---------||
D|-5-5-5-5-5-5-5--|-7-7-7-7-7-7-7--|-5-5-x-|-5-5-5-x-||
A|-3-3-3-3-3-3-3--|-5-5-5-5-5-5-5--|-5-5-x-|-5-5-5-x-||
E|----------------|----------------|-3-3-x-|-3-3-3-x-||

Outro
E|---------------|---------------|-0-||
B|---------------|---------------|-0-||
G|-5-5-5-5-5-5-5-|-7-7-7-7-7-7-7-|-0-||
D|-5-5-5-5-5-5-5-|-7-7-7-7-7-7-7-|-2-||
A|-3-3-3-3-3-3-3-|-5-5-5-5-5-5-5-|-2-||
E|---------------|---------------|-0-||

Order of song
--------------
Synthesizer
veries
chous
veries
chous
Bridg
Veries
Chous play x2
outro
  development and support by
dmitry ivanov