rock
 
|tablatures   |lyrics   |discussion forums   |more tabs @ XGuitar.com

Aerosmith tabs

Walk This Way guitar tab

Walk This Way  (with Solos).

Aerosmith

4.10.00

Tabbed by Nick Wellings

nickwellings@hotmail.com


  
Conventional Symbols 
   h = hammer on.
   p = pull off.
   b = bend string up.
   r = release bend.
   / = slide up.
   \ = slide down.
   v = vibrato, more v's= ore vib
   t = right hand tap.
   x = play 'note' with heavy damping.
  (x)= Ghost note: where x is a hardly heard note.     
(7)b9= Pre Bend: Fret the first bracketed note bent up to 9 
       and pick.
 5___=Unison bend, hold the 5 and bend the 7 up to the pitch of 
 7b   the 5



(Intro 0:04-0:13) (with half time feel on intro)
|------------------------|----------------------------|-------------------|
|------------------------|----------------------------|-------------------|
|------------------------|----------------------------|-------------------|
|------------------------|----------------------7-----|-------------------|
|-------7-------7--------|-------7-------7------7-----|-------7-------7---|
|-5-6-7---5-6-7---0--x-x-|-5-6-7---5-6-7---5P0--0-(x)-|-5-6-7---5-6-7---0-|

|------------------5\8--|
|------------------5\8--|
|------------------6\9--|
|------------------7\10-|
|-------7-------7--7\10-|
|-5-6-7---5-6-7----5\8--|

(rhythm figure 1)	     (rhythm figure 2)   (rhythm figure 3)
|------------------------|| |--8--8--8--8-8-8--|--8--8--8---8--8--8--|
|------------------------|| |--8--8--8--8-8-8--|-10-10-10--10-10-10--|
|------------------------|| |--9--9--9--9-9-9--|-10-10-10--10-10-10--|
|--------7---10---8-7----|| |-10-10-10---------|-10-10-10------------|
|-----10-------10--------|| |-10-10-10---------|--8--8--8------------|
|--8(8)------------------|| |- 8--8--8---------|---------------------|

(0:13-0:31) (with rhythm figure 1 repeated as necessary)
Back sorta lover 
....
.....
Like this

(0:31-0:39)
|-------------------------|--------------------------|------------------------|
|-------------------------|--------------------------|------------------------|
|-------------------------|--------------------------|------------------------|
|-------------------------|-------------------------7|------------------------|
|-------7-------7---------|-------7-------7---------7|-------7-------7--------|
|-5-6-7---5-6-7---0--x-x-x|-5-6-7---5-6-7---0--5P0--0|-5-6-7---5-6-7---0-x-x-x|

|------------------5\8--|
|------------------5\8--|
|------------------6\9--|
|------------------7\10-|
|-------7-------7--7\10-|
|-5-6-7---5-6-7----5\8--|

(0:39-0:57) (with rhythm figure 1)
See saw sling ...
...
...
But she told me to 

(0:57-1:14)
(w/rhythm fig. 2)
Walk this way
(w/rhythm fig. 3)
Walk this way
(w/rhythm fig. 2)
Walk this way
(etc.)
Walk this way
Walk this way
Walk this way
Walk this way
Walk this way





(solo)
|--11b13--8h11p8----8----810--8-------------------------------|
|---------------11---11--------11-8---------------------------|
|------------------------------------10--8-----8--10b12-8b10--|
|-------------------------------------------10--------------10|
|-------------------------------------------------------------|
|-------------------------------------------------------------|

|-----------------------------------------------|
|-10b12p8----8----------------------------11b13-|
|--------10----10---10p8-10p8-11-10-8-----------|
|-------------------------------------10--------|
|-----------------------------------------------|
|-----------------------------------------------|

 

2nd 
(solo)                      (Twangy bit v.fast arpeg.)
|----------5-----------------------------------------------------|
|------5-8---8-5---------------------5h8p5-----------------------|
|--5-5-----------7--7p5-7p5-7b9-7b9-5-----7p5----7---------------|
|---------------------------------(5)---------7--5--7b9-(7)------|
|----------------------------------------------------------------|
|----------------------------------------------------------------|

|---------------------------------------------------------------8|	
|------------------------------5-8p7p5---5-----------------------|
|---------5-8p7p5--8p7p5---7-----------7--7b9r7p5-7p5h7p5-7b9p(5)|
|-------7------------------7-------------------------------------|
|----------------------------------------------------------------|
|-8-8-8----------------------------------------------------------|



A barre
Like this

(2:43-3:48) (solo)

(this rhythm figure repeated over solo)
|-------------------|---------------------|
|-------------------|---------------------|
|-------------------|---------------------|
|-------------------|---------------------|
|-------7-------7---|-------7-------7-----|
-5-6-7---5-6-7---0--|-5-6-7---5-6-7---5~~-|

|--------------------------------------------------------|
|-----------------------------------10b12v---12b14-12b15-|
|--------------------------------------------------------|
|--7b9r7--9b11-9b11--7b9--9b11-9b11----------------------|
|--------------------------------------------------------|
|--------------------------------------------------------|
                     (2:53)
|----------------------12-10-----11b13----11b13-11b14--|
|--12\--13b14-13b15------------12------12--------------|
|------------------------------------------------------|
|------------------------------------------------------|
|------------------------------------------------------|
|------------------------------------------------------|
                                                 (2:56)       
e-------------------------------------------------------|
B--11p10p8-10b12p8--------------------------------------|
G-------------------9---9-------------------------------|
D-------------------------------------------------------|
A-------------------------------------------------------|
E-------------------------------------------------------|


 (2:58)                                   
e----------12----------12-------------------|
B-------12----15b17vv----15--12-------------|
G----12-------------------------14b16-------|
D-14----------------------------------14----|
A-------------------------------------------|
E-------------------------------------------|

 (2:59)
e|-12---------------------------------------|
B|---15-12------12-12-----------------------|
G|--------14b16------15p14p12-14---12-------|
D|------------------------------(14)--------|
A|------------------------------------------|
E|------------------------------------------|



(3:03)
e|--------------16b17pick17-15---12------15--15b17-15b18--17b19p15--17|
B|--------12------------------------15b16-------------------------17--|
G|-----12-------------------------------------------------------------|
D|--14----------------------------------------------------------------|
A|--------------------------------------------------------------------|
E---------------------------------------------------------------------|

(3:06)	  
e----------12---------------------------------|
B-------------15p12---------------------------|
G---------------------14p12-12-14b16r14p12----|
D--12/14---------------------(14)---------14--|
A---------------------------------------------|
E---------------------------------------------|

Part of same descent
(3:08)						

                                               A.H 
					pinched harmonic I think.
e----------------------------------------------------------------|
B----------------------------------------------14b<>-------------|
G(12)------------------------------------------14b<>-------------|
D----14-12-------------------------------------------------------|
A----------14-12------12b13r12p10--10--10---10-------------------|
E----------------15-12-----------12---12--12---------------------|

(3:11)					(3:15)A chord
e-----------------------------------------------0------0--------0---|
B-------------------------------------------3b5--0--3b5--0---3b5--0-|
G-------------------------------------------------------------------|
D--7b8r7-5----7b8--7b8p5----7b8p5---7b8-----------------------------|
A----------7-------------7--------7---------------------------------|
E-------------------------------------------------------------------|


e----0------0------0-------0-------0-----------------------------|
B-3b5-0--3b5-0--3b5-0---3b5-0--3b5--0--3b5-0---------------------|
G--------------------------------------------2b4r2-0-------------|
D----------------------------------------------------------------|
A----------------------------------------------------------------|
E----------------------------------------------------------------|

    					A chord               Fade Out.
e------------------------------------------------------------------------|
B-----------------------------------------------------12-----12-12-12-12-|
G-----------------------------------------------(4/12)---12vv------------|
D--7b8-5---7b8-5--------------------------------(4/12)-------------------|
A--------7-------7---7p5h7-5----------5--7-------------------------------|
E----------------------------7-5-0--0------------------------------------|


Fin.

Hats off indeed to Mr.Perry!
  development and support by
dmitry ivanov