rock
 
|tablatures   |lyrics   |discussion forums   |more tabs @ XGuitar.com

Aerosmith tabs

Under My Skin guitar tab

DROPPED D TUNING!!!!!!
(ebgdaD)


INTRO

          
e :-----------------|-----------------|
B :-----------------|-----------------|
G :-----------------|---7----7---7----|
D :-----------------|---7----7---7----|
A :3--4--5--3--0----|---5----5---5----|
D :---------------3-|0----------------|

VERSE (listen for timing)

          
e :-----------------|
B :-----------------|
G :-5--7--5--7--10--|
D :-5--7--5--7--10--|
A :-3--5--3--5--8---|
D :-----------------|

PRE-CHORUS (timing is kinda ***ed here, so I\'ll just give you the basics)

    
e :---------------|-----------------|-----------------|-----------------|
B :---------------|-----------------|-----------------|-----------------|
G :-----------9---|------------12---|------------10---|------------11---|
D :-----------9---|------------12---|------------10---|------------11---|
A :-----------7---|------------10---|------------8----|------------9----|
D :0--00--00------|0---00--00-------|0---00--00-------|0---00--00-------|

CHORUS

   D                 C                 Bb                A 
e :-----------------|-----------------|-----------------|-----------------|
B :-----------------|-----------------|-----------------|-----------------|
G :------7----------|------5----------|------3----------|------2----------|
D :---7-----7-------|---5-----5-------|---3-----3-------|---2-----2-------|
A :5----------------|3----------------|1----------------|0----------------|
D :-----------------|-----------------|-----------------|-----------------|
   girl...           under....         yeah yeah yeah    yeah

For the solo just mess around in the key of C.
That\'s it for the song, 4 easy parts to learn.
If anyone can TAB out the highlly over-produced 
middle part of the song before the solo go for it.
^A^AEROSMITH^A^
  development and support by
dmitry ivanov