rock
 
|tablatures   |lyrics   |discussion forums   |more tabs @ XGuitar.com

Aerosmith tabs

Uncle Salty bass tab

-------------------------------------------------------------------------------
			     Uncle Salty - Aerosmith
                                Toys in the Attic
-------------------------------------------------------------------------------

Tabbed By : someguy175
e-mail: someguy_175@hotmail.com

I don't know the timing so its best to listen to the song.
The song is on their album "Toys In the Attic".

Tuning: EADG

Intro:

G|-6-------7-------8-------7---------|
D|---7-5-7---7-5-7---7-5-7---7-5-7---| X 2
A|-----------------------------------|
E|-----------------------------------|

Lead Into Verse:

G|-------------------------|
D|---5--7----5--7---5--7---| X 1
A|-7------7-------7--------|
E|-------------------------|

"Uncle Salty told me..."

G|------------------------------------------------|
D|------------------------------------------------| X 2
A|-7\----------7\---------7\----------3-5-3-------|
E|----5-0-3-5------5-0-3-5----5-0-3-5-------5\----|

"But when she cried at night..."

G|-----------------------|
D|-----------------------| X 2
A|----2-3-4-555555555----|
E|-33-----------------5~-|

G|----------------|
D|---7--5----75---|X 1
A|--7-----7----7--|
E|----------------|

"Oooh It's a sunny day...."

G|----------------------|
D|---------5--5--75-----|X 3
A|------5h7--------7----|
E|-5-----------------5~-|

"Oooh... Oh yeah...."

G|-----------------------|
D|---------3--3--3h5-----|
A|------3h5---------3----|
E|--3-----------------3--|

Guitar Solo:

G|-6-------8-------7---------|
D|---7-5-7---7-5-7---7-5-7---|X 2
A|---------------------------|
E|---------------------------|

"Now She's Doing Annie..."

G|---------------------|
D|---------------------|
A|--7\-----------------|
E|-----35353535353535--|

"But when she cried at night..."

G|-----------------------|
D|-----------------------| X 2
A|----2-3-4-555555555----|
E|-33-----------------5~-|


"Oooh It's a sunny day...."

G|----------------------|
D|---------5--5--75-----| Until Fade Out
A|------5h7--------7----|
E|-5-----------------5~-|

End on E|-5~-|

| /  slide up
| \  slide down
| h  hammer-on
| p  pull-off
| ~  vibrato
| +  harmonic
| x  Mute note
===============================================================================
  development and support by
dmitry ivanov