rock
 
|tablatures   |lyrics   |discussion forums   |more tabs @ XGuitar.com

Aerosmith tabs

Think About It guitar tab

Think About it(from the album NIGHT IN THE RUTS)
  
   intro riff(guitar 1)-
    4x              full bend and gradual release
   E----------------9b----r-p7-------------------|
   B---\8--8--7--8--------------8--7-7-----------|
   G---------------------------------------------|
   D---------------------------------------------|
   A---------------------------------------------|
   E---------------------------------------------|

   verse riff(palm muted at start of the lyrics)-
  
   play this in rhythm until you hear a change                        
   E----------------------|
   B--------------2--0----| 	
   G---2--5----2--2--0----|
   D---2--5----2-------2--| 	      
   A----------------------| 	
   E----------------------| 	

   then play this
   E---------------------|
   B---------------------|
   G--0--3---0-5--3------|
   D--0--3---0-5--3------|
   A----------------5----|
   E---------------------|
 
   chorus-

   Em-F#5-G5-A5  (end on Em)

   That's it for now. I may post more later. Have fun with what's here. Send all comments,questions, corrections and additions to meunier.1@osu.edu 

   Symbols used in transcription:
   \ = slide
   b = bend
   r = release
   p = pull-off
 
   Transcribed by Bryson Meunier
  development and support by
dmitry ivanov