rock
 
|tablatures   |lyrics   |discussion forums   |more tabs @ XGuitar.com

Aerosmith tabs

The Grind guitar tab

Aerosmith - The Grind - From Honkin' on Bobo

Main Riff:

E|----------------------------|
B|----------------------------|
G|----------------------------|
D|-2-2-4---------2-2-4--------|
A|-0-0-0--2-2-4--0-0-0--2-2-4-|
E|--------0-0-0---------0-0-0-|


Chorus :
"Cuz I''m missing you, Just like you..."
E|------------------------------------|
B|------------------------------------|
G|-2-------------4---------2-------4--|
D|-2-------------4---------2-------4--|
A|-0-------------2---------0-------2--|
E|------------------------------------|
  development and support by
dmitry ivanov