rock
 
|tablatures   |lyrics   |discussion forums   |more tabs @ XGuitar.com

Aerosmith tabs

Sunshine guitar tab

Aerosmith
sunshine

b bend
r release bend
h hammer
p pull of
/ slide
** tremolo,

A/F# (2O2220)
A5/F#(2022XX)

Intro
F#mB    D  A        F#mB    D  A
--------------------------------------
--------------------------------------
--------------------------------------
--------------------------------------2x
---2--2-5-5------------2--2-5-5-2-4---
2-2---------5-4b5r4p2-2--------5------


verse:2x
F#m B    D  A
F#m B    D  A
F#m B    D  A  D  A(riff 1)

Then riff 1
---------------------------
---------------------------
------------6-6-4-4--------
------------6-6-4-4-7-7-6-6
------------4-4-2-2-7-7-6-6
--------------------5-5-4-4
...the lines"
...was she"

chorus:
F#5   D5   B5   G#5
F#5   D5   C#5  B5
F#5   D5   B5   G#5
F#5   D5   C#5  B5
C#5   B5   A5   A5/F#

Solo: (C#   B   A   B) 3x
       C#   B   A   A/F#
       F#   D   B   G#

--------------------------------------
--------------------------------------
10-8-10-10b12r10-8-8**--8--8-8b10r8---
-------------------------11-----------2x
--------------------------------------
--------------------------------------

-------------------------------------------------------------
----19-17**--------19-17**---19p17-----20p17---------17------
//18---------18p16----------------18-16------18-16-----18p16h
-------------------------------------------------------------
-------------------------------------------------------------
-------------------------------------------------------------

-------------------------------------------------------------------------
-------------------------------------------------------------------------
18p16-18p16-18p16----14-16b18r16h14---14-16-16b18r16h14---14-------------
------------------------------------16------------------16---16-14-------
-------------------------------------------------------------------16----
-------------------------------------------------------------------------
		  (what is in the |--| isnt a guitar)
------------------|-------------|-------------------------
------------------|----12hd-12hd|-------------------------
------------------|-------------|--------------9*---------
9b11r9-9b11r9--7--|-7\X--7\X----|9b11r9--7-9/11-----------
------------------|-------------|-------------------------
------------------|-------------|-------------------------

i am the best, no one can make this tab like moi, dedicated to the artemia
band
  development and support by
dmitry ivanov