rock
 
|tablatures   |lyrics   |discussion forums   |more tabs @ XGuitar.com

Aerosmith tabs

Sunshine bass tab

Song: Sunshine
Artist: Aerosmith
Album: Just Push Play
Tabbed by: Martijn Hendriks (hendriksmartijn@hotmail.com)
/

This song is so good and so easy to play.
Just check it out!!
But be aware! This is my first tab. Please play it with the music.


Verse (4x)

G|---------------------|
D|-----------0-0-------|
A|------2--2------0----|
E|-2--2--------------4-|

G|---------------------|
D|-----------0-0-------|
A|------2--2------0-024|
E|-2--2----------------|


Pre-chorus

G|---------------|
D|-0-0----0-0----|
A|------0------0-|
E|---------------|

G|---------------|
D|---------------|
A|-04-42-20-0----|
E|-----------4-4-|


Verse (2x)

Pre-chorus (1x)


Chorus (2x)

G|-----------------|
D|-----0-----------|
A|-------0-2--0----|
E|-2--2---------4-0|

G|-----------------|
D|---4-2-0---------|
A|----------44--2--|
E|-2---------------|


End of Chorus

G|------------------|
D|------------------|
A|-44--2--0---------|
E|-------------3----|


Verse (2x)

Pre-chorus (1x)

Chorus (2x)

End of Chorus


Solo

G|-------------|
D|-------------|       (3x)
A|-4-42-20-02-2|
E|-------------|

G|--------|
D|--------|
A|-4-2-0--|
E|--------|

Verse (3x)

Pre-Chorus (1x)

Chorus (4x)

Well that was it, hope you followed it.
It's not that fast, ya know!!

BASS TAB ARCHIVE RULES!!!!!
  development and support by
dmitry ivanov