rock
 
|tablatures   |lyrics   |discussion forums   |more tabs @ XGuitar.com

Aerosmith tabs

Spaced bass tab

Artist: Aerosmith
Song: Spaced
Album: Get Your Wings (1974)
Tabbed By: Bruce Armstrong
 
Intro:
G|-------------------|
D|-------------------|
A|-6---------5-------|
E|----0-4-------0-3--|
 
Verse 1:
G|-----------------------------------------------------------|
D|-----------------------------------------------------------|
A|---------5----------------------------5--------------------|
E|-3--0-5-----0-6--1----0----5--3--0-5-----0-6--1----0----5--|
 
G|-----------------------------------------------------------------|
D|-----------------------------------------------------------------|
A|---------5-----------------3--0-3--3--0-3---------------5--------|
E|-3--0-5-----0-6--1----0----------------------6----5---2---6-5-3--|
 
Verse 2:
G|----------------------------------------------|
D|----------------------------------------------|
A|---------5----------------------------5-------|
E|-3--0-5-----0-6--1----0----5--3--0-5-----0-6--|
 
G|-------------------------------------------------|
D|-------------------------------------------------|
A|-----------3--0-3--3--0-3---------------5--------|
E|-1----0----------------------6----5---2---6-5-3--|
 
Bridge 1:
G|-----------------------------------------------------------------------|
D|-----------------------------------------------------------------------|
A|-----------------------------------------------------------------------|
E|-3------------5------------3------------5-------------3-------------1--|
 
G|-----------------|
D|-----------------|
A|-----------5-----|
E|-6---0--5-----3--|
 
Bridge 2:
G|--------------------------------------------------|
D|--------------------------------------------------|
A|-3-----------6--------5------5--------------------|
E|----1--3--0-----3-6-----6-------0-6--1----0----5--|
 
Last Verse:
G|------------------------------------------------------|
D|------------------------------------------------------|
A|----------5-----------------3--0-3--3--0-3------------|
E|-3--0-6------0-6--1----0----------------------6----5--|
 
Order:
Intro x1
Verse 1 x1
Verse 2 x1
Bridge 1 x1
Bridge 2 x1
Last Verse x1
 
Please Send Your Corrections To: zimzum@freemail.absa.co.za
  development and support by
dmitry ivanov