rock
 
|tablatures   |lyrics   |discussion forums   |more tabs @ XGuitar.com

Aerosmith tabs

S.O.S. (Too Bad) guitar tab

I just wanted to say a couple of things about this. First of all about the chorus, I tabbed Brad's part I'am not positive It's right so if you have any thing better please mail it to me. During the chorus I think Joe play's something very similar to the chorus so if you can figure taht out go with it.I hope you like It, It 's fairly easy song to play and lots of fun.

Please mail any comments'questions to me walkthisway6@hotmail.com

Have Fun!!

                       S.O.S(too bad)
                         (S.Tyler)
                       
Intro:
E----------------------------------
B----------------------------------
G---------------------------------- 6 times
D-4h6-4-----------4h6-4------------
A-------6---2-3-4-------6---4-2----
E---------4---------------4-----4--
                                    repeat this until verse
E------------------------------  ---------------------------        
B------------------------------  ---------------------------
G------------------------------  ---------------------------
D-6-4-----------6-4------------  ---------------------------
A-----6---2-3-4-----6----------  ---------------------------
E-------4-------------4-2/3/4~~  4-4-4-4-4-4-4-4-4-4-4-4-4-4

Verse:
E--------------------------------------------------------------------
B--------------------------------------------------------------------
G--------------------------------------------------------------------
D-6-----4---------------------------------------------------6-----4--
A-------------6-----4-----2------------------------------------------
E---4-4---4-4---4-4---4-4---4-0-0-0-0-0-0-0-0-0-0-0-0-0-0-0---4-4----

E----------------------------------------------------------------
B----------------------------------------------------------------
G----------------------------------------------------------------
D-----------------------------------6-----4----------------------
A-----6-----4-----2-----------------------------6-----4-----2----
E-4-4---4-4---4-4---4-0-0-0-0-0-0-0---4-4---4-4---4-4---4-4---4--

Chorus: similar to verse                         

too bad can't get me none of that
                      
E-----------------              
B-----------------
G--6hb-6-4-6-4----
D--------------6--   
A-----------------
E-----------------

Solo:
E-----7-------------7------------------------------
B-7fb---7fb(7)~~7fb---7fb(7)p5-5-7fb(7)p5-7fb-7fb--
G--------------------------------------------------
D--------------------------------------------------
A--------------------------------------------------
E--------------------------------------------------

E-4h7p4---4-----------------------------------------------------------
B-------7---7-4--------------4-5-4h4p4--------------------------------
G---------------6fb(6)-4-6fb-----------6-6fb(6)-4----6-4-6p4-----4----
D--------------------------------------------------5---------6p4---6--
A---------------------------------------------------------------------
E---------------------------------------------------------------------

E----------------------------------7fb-7fb-7fb-7fb~~~--
B-----3p4-6h8p6-4-6fb(6)-4-6-4-6-4---------------------
G-4-6--------------------------------------------------
D------------------------------------------------------
A------------------------------------------------------
E------------------------------------------------------

E-7fb(7)p0-6p4p0---4-------------------------4-----4-----------
B----------------4---7-4---4-------------7fb---7-4---7-4-------
G------------------------6---7p6p4-6fb-4-----------------7-6-4-
D--------------------------------------------------------------
A--------------------------------------------------------------
E--------------------------------------------------------------

h=hammer
p=pull
fb=full bend                   Josh Mackay
hb=bend 1/2 step            Truro Nova Scotia
()release bend                   Canada
  development and support by
dmitry ivanov