rock
 
|tablatures   |lyrics   |discussion forums   |more tabs @ XGuitar.com

Aerosmith tabs

Simoriah guitar tab

#----------------------------------PLEASE NOTE---------------------------------#
#This file is the author's own work and represents their interpretation of the #
#song. You may only use this file for private study, scholarship, or research. #
#------------------------------------------------------------------------------#
#

 Simoriah
 by Aerosmith
 from Permanent Vacation (1987)

   Intro riff:                                                (2x)

   E----------------------5---4------------------------------------|
   B-------5-8-7----------5---5----------5-8-7---------------------|
   G-----5-------7----7)--------------5--------7-------------------|
   D--7------------(7--------------7-------------0-----------------|
   A-----------------------------------------------0-5-0-0-5-0-0-5-|
   E---------------------------------------------------------------|

   

      D     G     F     
   E--5-----3-----1-----3------5-----3-----1-----2---------------|
   B--6-----3-----1-----3------6-----3-----1-----3---------------|
   G--7-----4-----2-----4------7-----4-----2-----2---------------|
   D--7-----5-----3-----5------7-----5-----3---------------------|
   A--5-----5-----3-----5------5-----5-----3--------0-0-0-0-0-0--|
   E--------3-----1-----3------------3-----1---------------------|

   
   A

   Walkin' the line of a razor's edge...


   Chorus:

       D                C            G

   E---5----------5-----3-------3----3-------3----|
   B---6----------------4------------3------------|
   G---7------7---------5---5--------4---4--------|
   D---7---7------------5------------5---5--------|
   A---5----------------3------------5------------|
   E---------------------------------3------------|

   

   That should be enough to get you started. Send in the solo if you 
   know it.

   Transcribed by Bryson Meunier
   mailto:meunier.1@osu.edu



   


  development and support by
dmitry ivanov