rock
 
|tablatures   |lyrics   |discussion forums   |more tabs @ XGuitar.com

Aerosmith tabs

Shela guitar tab

Shela(off Done With Mirrors)

This file contains most of the rhythm parts. Send me the lead parts 
if you have them. Enjoy what's here.

            intro riff-
 E--7\(1)--|------------------------------------------|
 B--7\(1)--|------------------------------------------|
 G--7\(1)--|------------------------------------------|
 D---------|-----5-----5-------5------4-----4-------4-|
 A---------|-0-3---0-3---0-3-3----0-2---0-2---0-2-2---|
 E---------|------------------------------------------|

 E----------------------------------------------|
 B----------------------------------------------|
 G----------------------------------------------|
 D------5-----5-------5------5-------------5----|
 A--0-3---0-3---0-3-3----0-3---0-3-5-0-3-3------|
 E----------------------------------------------| 

Repeat riff when necessary

When the riff changes, play this a couple of times:

 E-----------------------------------|
 B-----------------------------------|
 G-----------------------------------|
 D-----------------------------------|
 A---------5--------5-----------5----|
 E---0--3-----0--3-----0--3--3-------|

That's about it for the rhythm parts. Send all comments, questions,
corrections and additions to cbriney@gnn.com(meunier.1@osu.edu after
9/25/96).

Transcribed by Bryson Meunier

Symbol used in transcription:
/ = slide
  development and support by
dmitry ivanov