rock
 
|tablatures   |lyrics   |discussion forums   |more tabs @ XGuitar.com

Aerosmith tabs

Shame On You guitar tab

Shame On You(from Done With Mirrors)

 guitar 1(distortion/pickup in top position)-
 E--------------------------3~~~~----------------------|
 B----------------------3h5----------------------------|
 G-----------------------------------------------------|
 D------5-----------------------------------5----------|
 A--4h5---5p4p0-------------------------4h5---5p4p0----|
 E---------------0-----------------------------------0-|

 E----------------3~~~~~-|
 B-----(5)--3--5---------|
 G-----------------------|
 D-----------------------|
 A-----------------------|
 E-----------------------|

Repeat that riff four times. When verse starts, play this:
                  G5  A5
 E--------------------------|
 B--------------------------|
 G--------------------------|
 D--------5--------5--7-----|
 A----4h5---5p4p0--5--7-----|
 E-----------------3--5-----|

There's not much more to this song. That's about it. As always, send
all comments, questions,corrections and additions to cbriney@gnn.com
(meunier.1@osu.edu after 9/25/96).  Have fun with it!

Transcribed by Bryson Meunier

symbols used in transcription:
h = hammer-on
p = pull-off
~ = vibrato
  development and support by
dmitry ivanov