rock
 
|tablatures   |lyrics   |discussion forums   |more tabs @ XGuitar.com

Aerosmith tabs

Road Runner guitar tab

Road Runner Tab by Aerosmith

This is the main part of the song, I have not figured out the fills.
This is my first attempt at tabbing a song.  I don't know if it is
100% correct, but it sounds damn close when I play along.  I put the
counting in where different rhythms occur to try and give a feel
for the timing and length of each note.  Enjoy.




				       full band enters and song gets going
There is intro stuff here	      |------------------|-----------------|
that I have not figured out.	      |------------------|-----------------|
				      |------------------|-----------------|
It's the "Lady's and gentlemen" part. |----------------2-|---------------2-|
				      |----------2-2-4---|---------2-2-4---|
				      |--0-0-3-4---------|-0-0-3-4---------|

		       Count rhythm as:  1 & 2 & 3 & 4 &


  Verse
||------------------|-----------------|-----------------|------------------|
||------------------|-----------------|-----------------|------------------|
||*-----------------|-----------------|-----------------|------------------|
||*---------------2-|---------------2-|---------------2-|---------------2--|
||----------2-2-4---|---------2-2-4---|---------2-2-4---|---------2-2-4----|
||--0-0-3-4---------|-0-0-3-4---------|-0-0-3-4---------|-0-0-3-4----------|


|------------------|-----------------|-----------------|------------------|
|------------------|-----------------|-----------------|------------------|
|----------------2-|---------------2-|-----------------|------------------|
|----------2-2-4---|---------2-2-4---|---------------2-|---------------2--|
|--0-0-3-4---------|-0-0-3-4---------|---------2-2-4---|---------2-2-4----|
|------------------|-----------------|-0-0-3-4---------|-0-0-3-4----------|


|------------------|-----------------|-----------------|------------------||
|------------------|-----------------|-----------------|------------------||
|--4---4---4---4-3-|-2---------------|-----------------|---4-4-4---4-4-4-*||
|--4---4---4---4-3-|-2---------------|---------------2-|---4-4-4---4-4-4-*||
|--2---2---2---2-1-|-0---------------|---------2-2-4---|---2-2-2---2-2-2--||
|------------------|-----------------|-0-0-3-4---------|------------------||
   1   2   3   4 &   1 rest				   & 2 &   & 4 &


|------------------|-----------------|-----------------|------------------|
|------------------|-----------------|-----------------|------------------|
|------------------|-----------------|-----------------|------------------|
|----------------2-|-----------------|---------------2-|------------------|
|----------2-2-4---|-----------------|---------2-2-4---|------------------|
|--0-0-3-4---------|-0---------------|-0-0-3-4---------|-0----------------|
			rest				    rest


|------------------|-----------------|-----------------|------------------|
|------------------|-----------------|-----------------|------------------|
|----------------2-|-----------------|-----------------|------------------|
|----------2-2-4---|-----------------|---------------2-|------------------|
|--0-0-3-4---------|-0---------------|---------2-2-4---|------------------|
|------------------|-----------------|-0-0-3-4---------|-0----------------|
			rest				    rest


|------------------|-----------------|-----------------|------------------|
|------------------|-----------------|-----------------|------------------|
|--4-4-4-4-4-4-3-3-|-2---------------|-----------------|---4-4-4---4-4-4--|
|--4-4-4-4-4-4-3-3-|-2---------------|---------------2-|---4-4-4---4-4-4--|
|--2-2-2-2-2-2-1-1-|-0---------------|---------2-2-4---|---2-2-2---2-2-2--|
|------------------|-----------------|-0-0-3-4---------|------------------|
   1 & 2 & 3 & 4 &   1 rest
  development and support by
dmitry ivanov