rock
 
|tablatures   |lyrics   |discussion forums   |more tabs @ XGuitar.com

Aerosmith tabs

Rats In The Cellar bass tab

Standard Tuning

(Intro)
G:------------------------|
D:------------------------|
A:2-2----2-2----2-2----2-2|
E:------------------------|

G:----------------------|
D:----------------------|  x8
A:-----------0---2---0-2|
E:0-0-2-0--2---2---2----|

G:-------------|
D:2------------|  x4
A:--4--0---2(8)|
E:-------2-----|

G:---------------------------------------|
D:---------------------------------------|
A:4(8)--2(8)--4-4-4-4--2-2-2-2--4-2-4-2-0|
E:---------------------------------------|

(Chorus)
G:----------------------|
D:----------------------|  x8
A:-----------0---2---0-2|
E:0-0-2-0--2---2---2----|

G:-------------|
D:2------------|  x4
A:--4--0---2(8)|
E:-------2-----|

G:---------------------------------------|
D:---------------------------------------|
A:4(8)--2(8)--4-4-4-4--2-2-2-2--4-2-4-2-0|
E:---------------------------------------|

(During Solo)
G:-------------|
D:2------------|  x4
A:--4--0---2(8)|
E:-------2-----|

G:--------------------------------|
D:--------------------------------|
A:0-2-2----0-2-2----0-2-2----0-2-2|
E:--------------------------------|

G:----------------------|
D:----------------------|  x8
A:-----------0---2---0-2|
E:0-0-2-0--2---2---2----|

G:-------------|
D:2------------|  x4
A:--4--0---2(8)|
E:-------2-----|

G:---------------------------------------|
D:---------------------------------------|
A:4(8)--2(8)--4-4-4-4--2-2-2-2--4-2-4-2-0|
E:---------------------------------------|

(play fast)
G:----------|
D:----------| x100
A:2--0-----0|
E:------3---|

G:-----------------------|
D:-----------------------|
A:-----------------------| (from 3.28-3.53)
E:4-4-4-4-4-4-4-4-4-4-4-4|

(Outro)
G:--------------------|
D:--------------------|
A:--------------------|
E:4-4-4-4-4-4-4-4----4|
  development and support by
dmitry ivanov