rock
 
|tablatures   |lyrics   |discussion forums   |more tabs @ XGuitar.com

Aerosmith tabs

Rag Doll bass tab

Standard Tuning

(Intro)
G:----------|----------|----------|----------|
D:----------|----------|----------|----------|
A:----------|----------|----------|---------5|
E:2--2--2--2|2--2--2--2|2--2--2--2|2--2--2---|


G:----------|----------|----------|----------|
D:----------|----------|----------|----------|
A:2--2--2--2|2--2--2--2|5--5--5--5|5--5--5--5|
E:----------|----------|----------|----------|

G:----------|----------|----------|----------|
D:----------|----------|----------|--5----2--|
A:----------|----------|2--2--2--2|----------|
E:5--5--5--5|5--5--5--5|----------|----------|


G:----------|----------|----------|----------|
D:----------|----------|----------|----------|
A:2--2--2--2|2--2--2--2|5--5--5--5|5--5--5--5|
E:----------|----------|----------|----------|

G:----------|----------|----------|----------|
D:----------|----------|----------|5--2------|
A:----------|----------|2--2--2--2|------5--0|
E:5--5--5--5|5--5--5--5|----------|----------|


G:----------|----------|----------|----------|
D:2--2--2--0|2---2--2-0|2--2--2--0|2---2--2-0|
A:----------|----------|----------|----------|
E:----------|----------|----------|----------|

G:----------|----------|----------|----------|
D:----------|----------|----------|----------|
A:2--2--2--0|2---2--2-0|2--2--2--0|2---2--2-0|
E:----------|----------|----------|----------|

G:----------|----------|----------|----------|
D:2--2--2--0|2---2--2-0|2--2--2--0|2---2--2-0|
A:----------|----------|----------|----------|
E:----------|----------|----------|----------|

G:----------|----------|----------|----------|
D:----------|----------|----------|----------|
A:2--2--2--0|2---2--2-0|2--2--2--0|2---2--2-0|
E:----------|----------|----------|----------|

G:----------|----------|----------|----------|
D:2--2--2--0|2---2--2-0|2--2--2--0|2---2--2-0|
A:----------|----------|----------|----------|
E:----------|----------|----------|----------|

G:----------|----------|----------|----------|
D:----------|----------|----------|------0---|
A:----------|----------|----------|----------|
E:2--2--2--2|2--2--2--2|2--2--2--2|2---------|

G:----------|----------|----------|----------|
D:----------|----------|----------|----------|
A:2--2--2--2|2--2--2--2|5--5--5--5|5--5--5--5|
E:----------|----------|----------|----------|

G:----------|----------|----------|----------|
D:----------|----------|----------|--5----2--|
A:----------|----------|2--2--2--2|----------|
E:5--5--5--5|5--5--5--5|----------|----------|


G:----------|----------|----------|----------|
D:----------|----------|----------|----------|
A:2--2--2--2|2--2--2--2|5--5--5--5|5--5--5--5|
E:----------|----------|----------|----------|

G:----------|----------|----------|----------|
D:----------|----------|----------|5--2------|
A:----------|----------|2--2--2--2|------5--0|
E:5--5--5--5|5--5--5--5|----------|----------|


G:----------|----------|----------|----------|
D:2--2--2--0|2---2--2-0|2--2--2--0|2---2--2-0|
A:----------|----------|----------|----------|
E:----------|----------|----------|----------|

G:----------|----------|----------|----------|
D:----------|----------|----------|----------|
A:2--2--2--0|2---2--2-0|2--2--2--0|2---2--2-0|
E:----------|----------|----------|----------|

G:----------|----------|----------|----------|
D:2--2--2--0|2---2--2-0|2--2--2--0|2---2--2-0|
A:----------|----------|----------|----------|
E:----------|----------|----------|----------|

G:----------|----------|----------|----------|
D:----------|----------|----------|------0---|
A:----------|----------|----------|----------|
E:2--2--2--2|2--2--2--2|2--2--2--2|2---------|

G:----------|----------|----------|----------|
D:----------|----------|----------|----------|
A:2--2--2--2|2--2--2--2|5--5--5--5|5--5--5--5|
E:----------|----------|----------|----------|

G:----------|----------|----------|----------|
D:----------|----------|----------|--5----2--|
A:----------|----------|2--2--2--2|----------|
E:5--5--5--5|5--5--5--5|----------|----------|


G:----------|----------|----------|----------|
D:----------|----------|----------|----------|
A:2--2--2--2|2--2--2--2|5--5--5--5|5--5--5--5|
E:----------|----------|----------|----------|

G:----------|----------|----------|----------|
D:----------|----------|----------|5--2------|
A:----------|----------|2--2--2--2|------5--0|
E:5--5--5--5|5--5--5--5|----------|----------|

(During Solo)
G:----------|----------|----------|------1---|
D:4--4--4--4|4--4--4--4|4--4--4--4|4---------|
A:----------|----------|----------|----------|
E:----------|----------|----------|----------|

G:2--2--2--2|2--2--2--2|2--2--2--2|2-----1---|
D:----------|----------|----------|----------|
A:----------|----------|----------|----------|
E:----------|----------|----------|----------|

G:----------|----------|----------|------1---|
D:4--4--4--4|4--4--4--4|4--4--4--4|4---------|
A:----------|----------|----------|----------|
E:----------|----------|----------|----------|

G:2--2--2--2|2--2--2--2|2--2--2--2|2-----1---|
D:----------|----------|----------|----------|
A:----------|----------|----------|----------|
E:----------|----------|----------|----------|

G:----------|----------|----------|------1---|
D:4--4--4--4|4--4--4--4|4--4--4--4|4---------|
A:----------|----------|----------|----------|
E:----------|----------|----------|----------|

G:----------|----------|----------|----------|
D:2--2--2--0|2---2--2-0|2--2--2--0|2---2--2-0|
A:----------|----------|----------|----------|
E:----------|----------|----------|----------|

G:----------|----------|----------|----------|
D:----------|----------|----------|----------|
A:2--2--2--0|2---2--2-0|2--2--2--0|2---2--2-0|
E:----------|----------|----------|----------|

G:----------|----------|----------|----------|
D:2--2--2--0|2---2--2-0|2--2--2--0|2---2--2-0|
A:----------|----------|----------|----------|
E:----------|----------|----------|----------|

G:----------|----------|----------|----------|
D:----------|----------|----------|------0---|
A:----------|----------|----------|----------|
E:2--2--2--2|2--2--2--2|2--2--2--2|2---------|

G:----------|----------|----------|----------|
D:----------|----------|----------|----------|
A:2--2--2--2|2--2--2--2|5--5--5--5|5--5--5--5|
E:----------|----------|----------|----------|

G:----------|----------|----------|----------|
D:----------|----------|----------|--5----2--|
A:----------|----------|2--2--2--2|----------|
E:5--5--5--5|5--5--5--5|----------|----------|


G:----------|----------|----------|----------|
D:----------|----------|----------|----------|
A:2--2--2--2|2--2--2--2|5--5--5--5|5--5--5--5|
E:----------|----------|----------|----------|

G:----------|----------|----------|----------|
D:----------|----------|----------|5--2------|
A:----------|----------|2--2--2--2|------5--0|
E:5--5--5--5|5--5--5--5|----------|----------|

G:----------|----------|----------|----------|
D:----------|----------|----------|----------|
A:2--2--2--2|2--2--2--2|5--5--5--5|5--5--5--5|
E:----------|----------|----------|----------|

G:----------|----------|----------|----------|
D:----------|----------|----------|--5----2--|
A:----------|----------|2--2--2--2|----------|
E:5--5--5--5|5--5--5--5|----------|----------|


G:----------|----------|----------|----------|
D:----------|----------|----------|----------|
A:2--2--2--2|2--2--2--2|5--5--5--5|5--5--5--5|
E:----------|----------|----------|----------|

G:----------|----------|----------|----------|
D:----------|----------|----------|5--2------|
A:----------|----------|2--2--2--2|------5--0|
E:5--5--5--5|5--5--5--5|----------|----------|
  development and support by
dmitry ivanov