rock
 
|tablatures   |lyrics   |discussion forums   |more tabs @ XGuitar.com

Aerosmith tabs

Pandora's Box guitar tab

 #----------------------------------PLEASE NOTE---------------------------------#
#This file is the author's own work and represents their interpretation of the #
#song. You may only use this file for private study, scholarship, or research. #
#------------------------------------------------------------------------------#
 Pandora's Box(S.Tyler,J.Kramer)
 by Aerosmith
 from "Get Your Wings"(1974)

   clarinet lead in transcribed for guitar(barely audible)-
   "I'm in the Mood for Love"
   E---------------------------------------------------------|
   B--15~~~~--12~~~--15~~~~--12~~~----------------13~~~~-----|
   G--------------------------------16~~~--15~~~~------------|
   D---------------------------------------------------------|
   A---------------------------------------------------------|
   E---------------------------------------------------------|

   E---------------------------------|
   B---------------------------------|
   G--15~~~-13~~~-15~~~-13~~~--------|
   D---------------------------------|
   A---------------------------------|
   E---------------------------------|

   intro/main riff-
   E--------------------------------------------------------------|
   B--------------------------------------------------------------|
   G----------2--------------2--------------------2-------------2-|
   D--2--2-2--2--2---2--2-2--2--2-2--2b-r-2--2-2--2--2--2--2-2--2-|
   A--2--2-2--0--x---2--2-2--0--x-x--0----2--x-x--0--x--2--2-2--0-|
   E--0--3-3-----3---0--3-3-----3-3-------0--3-3-----3--0--3-3----|

   E-----------------|
   B-----------------|
   G-------2---------|
   D--2-2--2--2------|
   A--x-x--0--x------|
   E--3-3-----3--0---|

For a while I was playing the above with barre chords, but this seems 
to sound better. It is more irregular, but that makes sense
considering that a drummer wrote it.

 intro solo-
   E--12b------12r-p10-----10~~~~~~~~~~~----------------------------------|
   B--------------------12------------------------------------------------|
   G----------------------------------------------------------------------|
   D-----------------------------------------15-15-15--14-14-14--12-12-12-|
   A----------------------------------------------------------------------|
   E----------------------------------------------------------------------|

   E------------------------------------------------------------------|
   B------------------------------------------12b---r-----13b---r-----|
   G-------------------------11--11b---r---------------11----------11-|
   D-10-10-10-9-----------10--------------10--------------------------|
   A----------------10\12---------------------------------------------|
   E------------------------------------------------------------------|

   E-12b---r------13b---r------10h12p10------10------12-12-10---10-12-x---|
   B----------10-----------10------------12------12-----------------------|
   G----------------------------------------------------------------------|
   D----------------------------------------------------------------------|
   A----------------------------------------------------------------------|
   E----------------------------------------------------------------------|

   E-10-13-x-14--14b-~~~~~~~~~~~~~~~r-------------------------------------|
   B----------------------------------------------------------------------|
   G----------------------------------------------------------------------|
   D----------------------------------------------------------------------|
   A----------------------------------------------------------------------|
   E----------------------------------------------------------------------|

That's it for now. I may (or may not)add more in the future.

Transcribed by Bryson Meunier(meunier.1@osu.edu)

Symbols used in transcription:
h = hammer-on
p = pull-off
b = bend
r = release
\ = slide
x = percussive sound with fretting hand(or muted string)
~ = vibrato
     
  development and support by
dmitry ivanov