rock
 
|tablatures   |lyrics   |discussion forums   |more tabs @ XGuitar.com

Aerosmith tabs

No More No More guitar tab

                          A E R O S M I T H

                          "No More No More"
                       from _Toys in the Attic_

                   Transcribed by Kevin Bourrillion


 +-- Fig. 1 -------------------------------------------+
N.C.(Esus4)         (E)                                 (B)
e+-----------------|-----------------|-------0-------0-|-----------------|
B+-----------------|-----------------|-------0-------0-|-----------------|
G+-----------4-----|-----------4-----|-----------------|-----------------|
D+-----2---2---2---|-----2---2---2---|-----------------|-4---4-6---4-6---|
A+---2-------------|---2-------------|-----------------|-2---2-2---2-2---|
E+-5-----5-------5-|-4-----4-------4\|-0---------------|-----------------|

Play these 4 measures 2x, then repeat first 3 measures only.
Then...


Fig. 2 (next 4 bars)
 |---------------------------------|---------------------------------|
 |---------------------------------|---------------------------------|
 |---------------------------------|---------------------------------|
 |-7-------9---9---7-7-7---9-------|-6-------7---7---6---6---7-------|
 |-7-------9---9---7-7-7---9-------|-6-------7---7---6---6---7-------|
 |-5-------7---7---5-5-5---7-------|-4-------5---5---4---4---5-------|

 |---------------------------------|---------------------------------|
 |---------------------------------|---------------------------------|
 |---------------------------------|---------------------------------|
 |-7-------9---9---7-7-7---9-------|-9-------7---9-------7---9-------|
 |-7-------9---9---7-7-7---9-------|-9-------7---9-------7---9-------|
 |-5-------7---7---5-5-5---7-------|-7-------5---7-------5---7-------|


E
blood stains the ivories of my daddy's baby grand
ain't seen the daylight since we started this band

   B
 |-----------------|-----------------|-----------------|-----------------|
 |-----------------|-----------------|-----------------|-----------------|
 |-----------------|-----------------|-----------------|-----------------|
 |-4-4---6---4-6---|-4---4-6-4-4-6---|-4-4---6---4-6---|-4---4-6-4-4-6---|
 |-2-2---2---2-2---|-2---2-2-2-2-2---|-2-2---2---2-2---|-2---2-2-2-2-2---|
 |-----------------|-----------------|-----------------|-----------------|
         No More, No More                    No More, No More


E
store-bought clothes fallin 'part at the seams
tea leaf-readin gypsies fortune-tellin my dreams
B (as before)
No More, No More
No More, No More

holiday inns, lock the door with a chain
you love it then ya hate it but to me they're all the same
No More, No More
No More, No More


(w/Fig. 1)
baby I'm a dreamer
found my horse and carriage
(Fig. 2)


stalemate jailbait ladies can't refuse
you love 'em then you leave 'em with your sold out reviews
No More, No More
Mo More, No More

sweet talkin' barroom ladies disease
slippin' with her lips slidin' down your knees
No More, No More
No More, No More


(w/Fig. 1)
*baby I'm a screamer
                   B
bound to a wife in marriage

(w/Fig. 1)
baby I'm a dreamer
found my horse and carriage
(Fig. 2)


E
ladies hold the aces and their lovers call it passion
the men call it pleasure but to me it's old fashioned
A
times they're a changin' nothing ever stands still
if I don't* stop changin' I'll be writin' my will
         B
it's the same old story never get a second chance
for a dance to the top of the hill


(w/Fig. 1)
babe I'm a dreamer, found my horse and carriage


Outro (repeat ad infinitum):

 |-----------------|-----------------|-----------------|-----------------|
 |-----------------|-----------------|-----------------|-----------------|
 |-----------------|-----------------|-----------9-----|-----------------|
 |-7---9-9---7-9---|-6---7-7---6-7-6-|-----------9-----|-----9-9---9-9---|
 |-7---9-9---7-9---|-6---7-7---6-7-6-|-----------7-----|-----9-9---9-9---|
 |-5---7-7---5-7---|-4---5-5---4-5-4-|-0-----3p0-------|-----7-7---7-7---|


--------------------

The lyrics I gave are right from the liner notes of _Pandora's Box_, but
in a few places (noted by *'s) I'm not sure these lyrics are correct.
As with all my tabs, please use this as a guideline to find your own
personal favorite way of playing this song.  Rather than take the
years to type out every last nuance of Joe-or-Brad's excellent outro
solo, let me just advise you:  Think B dorian and double stops.

Questions/comments/thankfulness welcome! :-)
Have fun!  More to come!

--
Kevin Bourrillion               Bradley University               IITYWYGMTB
phlegm@cs1.bradley.edu              Geisert 804              (309) 677-1193
---------------------------------------------------------------------------
"Livin', lovin' getting loose
 Masturbatin' with a noose 
 Now someone's kickin' out the chair!"     -- Aerosmith
-----------------------------------------------------------------------------

No More No More

outro solo-

   E--7--7-7---7-7---7-7--7-7-7---7-7-------------------------7---------7---7----|
   B--7--7-7---7-7---7-7--7-7-7---7-7-------------------------7---------7---7-7--|
   G-----------------------------------9b--rp7-7-----------------9b--r-----------|
   D---------------------------------------------9--(9p7-------------------------|
   A-----------------------------------------------------h9)---------------------|
   E-----------------------------------------------------------------------------|


   E-------------------------------7----------------------------------------------------------|
   B--10b-10--7----------7-h9--b------10p7--7--------------------------------------------7p0--|
   G-------------9b--r-------------------------7b-r-----------7-----------7--7-7--------------|
   D-------------------------------------------------9/---\9-----9/--\9-9--------9/--\9-------|
   A------------------------------------------------------------------------------------------|
   E------------------------------------------------------------------------------------------|

   E--------------------7p0-----------------7--9~~~~~~~~~~------------10b--r10--7|
   B--------------10b-r-----7p0-7p0---------7--------------10p7---7-7------------|
   G-7----7b-r----------------------7---------------------------9----------------|
   D----9------9----------------------9-(9)--------------------------------------|
   A-----------------------------------------------------------------------------|
   E-----------------------------------------------------------------------------|

   E-------------------------------9b-r-7----------------------------------------|
   B-10p7--------------------7-9-7---------9/-------7---9b-r-7-9-----------------|
   G------9-9b-r-7------7\9---------------------7\9-----9b-r-7-9-(7)----9-7------|
   D---------------9-9------------------------------------------------9-----9-9--|
   A-----------------------------------------------------------------------------|
   E-----------------------------------------------------------------------------|

   E-----------------------------------------------------------------------------|
   B--9-7---9-7-----9-7---9-7-------9-7---9-7-----9-7---9-7-----9-7---9-7---9-7--|
   G--9-7---9-7-7---9-7---9-7-------9-7---9-7-----9-7---9-7-----9-7---9-7---9-7--|
   D------9-------9-----9-----9-9-9-----9-----9-9-----9-----9-9-----9-----9------|
   A-----------------------------------------------------------------------------|
   E-----------------------------------------------------------------------------|

   E-----------------------------------------------------------------------------|
   B---9-7---9-7---9-7---9-7---9-7---9-7---9-7---9-7---9-7---9-7-----------------|
   G---9-7---9-7---9-7---9-7---9-7---9-7---9-7---9-7---9-7---9-7-----------------|
   D-9-----9-----9-----9-----9-----9-----9-----9-----9-----9-----9-p7h9p7h9\12---|
   A-----------------------------------------------------------------------------|
   E-----------------------------------------------------------------------------|

   E-----------------------7-7----------------7---9b-7---------------------------|
   B-12b-r10--9-7----------7----9b--rp7----9b-7---9b-7-----------------7------7--|
   G-12b-r10--9-7-----9b-r------9b--rp7----9b---9------9b-r---7-7-9b-r---9b-r----|
   D---------------9--------------------p9------------------9--------------------|
   A-----------------------------------------------------------------------------|
   E-----------------------------------------------------------------------------|

   E------------------------------------------------------------7----------------|
   B------7------7------7------7------7------7--------9-----------10p7--------7--|
   G-9b-r---9b-r---9b-r---9b-r---9b-r---9b-r---9b--r--9p7--------------9p7-9b-r-7|
   D-------------------------------------------------------9-9-------------------|
   A-----------------------------------------------------------------------------|
   E-----------------------------------------------------------------------------|

   E----7-7-x-x-x-x-7-7-x-x-x-x-7-7-x-x-7-7-7-x-x-x-x-7---x-x-7-7-7-----7---7---7|
   B----7-7-x-x-x-x-7-7-x-x-x-x-7-7-x-x-7-7-7-x-x-x-x-7-7-x-x-7-7-7-----7---7---7|
   G----7-7-x-x-x-x-----x-x-x-x-7-7-x-x-----7-x-x-x-x---7-----------7-7---7---7--|
   D-9---------------------------------------------------------------------------|
   A-----------------------------------------------------------------------------|
   E-----------------------------------------------------------------------------|

   E-9b--(7)-------------------------------------------------------10b--7-----7--|
   B-------------------------------------------------9---7-10---9---------10b-7--|
   G-------------------------------------------9---7---9------9------------------|
   D----------7\9-9-----9p7---7---6--9---7---6---9-------------------------------|
   A------------------9-----9---9------9---9-------------------------------------|
   E-----------------------------------------------------------------------------|

   E------------------------------------12b------r-12b----r-12b--rp10--------12b-|
   B-10p7-10p7-7h9-7h9p7------12p10-----------------------------------12--12-----|
   G---------------------7\10-------12-------------------------------------------|
   D-----------------------------------------------------------------------------|
   A-----------------------------------------------------------------------------|
   E-----------------------------------------------------------------------------|

   E--rp10----12-12b--------r-10------------14b------14---14--14r/---7-----------|
   B-------12---------------------12-12--12---------(14)-------------7--9b-rp7---|
   G-----------------------------------------------------------------7--9b-rp7---|
   D---------------------------------------------------------------------------9-|
   A-----------------------------------------------------------------------------|
   E-----------------------------------------------------------------------------|
                                                                           P.H.
   E-----------------------------------------------------------------------------|
   B-9b-rp7----9b-r---7----------------------------------------------------------|
   G-9b-rp7----9b-r---7----------------------------------------7p5---7p5---4-----|
   D--------9-------9---9-7-9-7~~~~--------------------------7-----7-----7---7---|
   A--------------------------------9/-------5-7-7b-r-5-7/-----------------------|
   E-------------------------------------5\7-------------------------------------|
     P.H.
   E---------------------------------------------------------------------------5-|
   B---------------------------------------------------------------------------5-|
   G-7p4---7p4---7p4---7p4---7p4---7p4---7p4-4-4b-r--7b-r--4-7-7-6-4-7-4---7b----|
   D-----7-----7-----7-----7-----7-----7-----------------------------------------|
   A-----------------------------------------------------------------------------|
   E-----------------------------------------------------------------------------|

   E--5b--r--7--------------------|
   B---------7--------------------|
   G------------------------------|
   D------------------------------|
   A------------------------------|
   E------------------------------|

I had some time in between quarters so I decided to sit down and figure this out. Thanks 
to Kevin Bourrillion for pointing me in the right direction. Some of it, of course, could
 be wrong. Mail me all comments, corrections, questions and additions at the address 
listed below.

Transcribed by Bryson Meunier
http://www.angelfire.com/free/bryson.html
mailto:meunier.1@osu.edu

Symbols used in transcription:
b = bend
r = release
h = hammer-on
p = pull-off
/ = slide down the neck
\ = slide up the neck
~ = vibrato
P.H. = pinch harmonics(at least I think that's what they're called. Whatever they are,
       they're probably accidental in this case)
x = make percussive noise with fretting hand
() = ghost note(barely audible)
  development and support by
dmitry ivanov