rock
 
|tablatures   |lyrics   |discussion forums   |more tabs @ XGuitar.com

Aerosmith tabs

Light Inside guitar tab

-----------------------------------------------------------------------------
			     Light Inside - Aerosmith
                               FROM JUST PUSH PLAY
----------------------------------------------------------------------------
Tabbed by:KillerRabbitJTO

Tuning:DROP D!!!!!!

Intro    The drums do their thing first then the guitar goes
e|--------------------------------------------------------------------------|
B|--------------------------------------------------------------------------|
G|--------------------------------------------------------------------------|
D|-0-----------------------3-----------------3------------REPEAT------------|
A|-0--------------------5----5--2-3-4-----5----5--2-3-4---------------------|
D|-0------------------------------------------------------------------------|

VERSE
e|--------------------------------------------------------------------------|
B|--------------------------------------------------------------------------|
G|--------------------------------------------------------------------------|
D|-6--0--2--3----6--0--2--3--------REPEAT-----------------------------------|
A|-6--0--2--3----6--0--2--3-------------------------------------------------|
D|-6--0--2--3----6--0--2--3-------------------------------------------------|

e|--------------------------------------------------------------------------|
B|--------------------------------------------------------------------------|
G|-----------------------REPEAT ALOT---------------------------------------|
D|----3---------------------------------------------------------------------|
A|-5----5--2-3-4------------------------------------------------------------|
E|--------------------------------------------------------------------------|
  development and support by
dmitry ivanov