rock
 
|tablatures   |lyrics   |discussion forums   |more tabs @ XGuitar.com

Aerosmith tabs

Just Push Play guitar tab

Aerosmith
Just Push Play

Dropped D


Intro

|-----------------10-10-10-10-10-10-10-10-10-10-10-10-10---|
|-----------------10-10-10-10-10-10-10-10-10-10-10-10-10---|
|-----------------11-11-11-11-11-11-11-11-11-11-11-11-11---|
|----------------------------------------------------------|
|----0-----------------------------------------------------|
|----0-----------------------------------------------------|

Verse/Chorus

|-----------------------------------|
|-----------------------------------|
|-----------------------------------|
|-----------------------------------|
|---------------5--0--5p0-----------|
|--0--4p0--7--------------4--0------|

Refrain

|--------------------------------|
|--------------------------------|
|--------------------------------|
|---5---5---5---5----------------|
|---5---5---5---5----------------|
|---5---5---5---5----------------|
  development and support by
dmitry ivanov