rock
 
|tablatures   |lyrics   |discussion forums   |more tabs @ XGuitar.com

Aerosmith tabs

Just Push Play bass tab

"Just Push PLay"
Aerosmith
Tabbed by: Jeremy Casillas lastchild83@yahoo.com

The title track to the bands 13th studio album to date. This is another good use of different tunings for Aerosmith. The messed around with drop D in “Permanent Vacation” on “Hangman Jury.”

G---------------------
D---------------------
A---------------------
D—0---LET RING--------
This is the intro to the song when the chord comes in. Tom just holds the D to sustain the chord along with the piano.


G---------------
D---5-4--------
A--------5-5\\--
D---------------
The riff here is the backing part to Joe’s riff right when he comes in.

“We’re goin’ to work….we’re goin to work…”

G-----------------------------------------------------
D-----------------------------------------------------
A-------5------------------------5--------------------
D--4-5---0----5-4-3-0---4-5----0----5-3—0-------------
Here is Tom’s part in the verses of the entire song. You gotta kinda lay back your playing, loosen up a bit. It’s a funky part, so play it funky.

“Didn’t say ya know her, we’re goin’ to work-She gave you a flower, the one that God gave her-goin’ to work, we’re goin’ to work- You roll up in the Kool-Aid but you do not know the flavor…”

G--------------------------------------------------------
D--------------------------------------------------------
A--------------------------------------------------------
D----5-5-5---3-5------5-5-5---3-5------------------------
I don’t know how to explain this one….it's self explanatory…

“(Steven scats)-Get down, spin ‘round get a little refried…”

G----------------
D----------------
A--------5-------
D---4-5----0----

This is the Just Push Play riff in the chorus

“Just Push Play-FNA, Just Push Play-They gotta bleep it anyway…”
  development and support by
dmitry ivanov