rock
 
|tablatures   |lyrics   |discussion forums   |more tabs @ XGuitar.com

Aerosmith tabs

Jig Is Up guitar tab

e-----------------------------------------------------------------
B-----------------------------------------------------------------
G-----------------------------------------------------------------
D-----------------------------------------------------------------
A---2-------------------------5---4---2---------------------------
E---0-----0--2p0--3p0--2p0----------------------------------------

verse:
e-----------------------------------------------------------------
B-----------------------------------------------------------------
G--2------2----2----2------2-----2--------------------------------
D--2------2----2----2------2-----2-----5--5-4p2p0-2---------------
A--0------0----0----0------0-----0-------------------3------------
E------3----------------------3-----------------------------------

intro:
e-----------------------------------------------------------------
B-----------------------------------------------------------------
G-----------------------------------------------------------------
D--------7----------5---------3---------1-------------------------
A--------7----------5---------3---------1-------------------------
E--0--7-------0--5------0--3------0--1----------------------------
  development and support by
dmitry ivanov